Artists by letter: A B C D E F G H I J K L M N O P Q R S T U V W X Y Z 0-9

 
Black Heart Tab
-------------------------------------------------------------------------------
			                      Black Heart - Hey Rosetta!
-------------------------------------------------------------------------------
Tabbed by:Soccerguy
Email:[email protected]

Tuning:Standard
Intro/Verse
e|------------------------------------------------------------------|
B|--1-1-1-1--0-0-0-0--3-3-3-3--2-2-2-2-2-2-2-2----------------------|
G|-5-5-5-5--4-4-4-4--7-7-7-7--6-6-6-6-6-6-6-6-----------------------|
D|------------------------------------------------------------------|
A|------------------------------------------------------------------|
E|------------------------------------------------------------------|
Guitar 2
e|---------------------------------------------------------------|
B|---------------------------------------------------------------|
G|---5---4---7---6-----------------------------------------------|
D|--5---4---7---6------------------------------------------------|
A|-3---2---5---4-------------------------------------------------|
E|---------------------------------------------------------------|

e|------12-------------------------------------------|
B|-10-10---8-10-7-8-7-5-5b---------------------------|
G|---------------------------------------------------|
D|---------------------------------------------------|
A|---------------------------------------------------|
E|---------------------------------------------------|

e|---------------------------------------------|
B|---------------------------------------------|
G|-5-4-7-5-------------------------------------|
D|-5-4-7-5-------------------------------------|
A|-3-2-5-3-------------------------------------|
E|---------------------------------------------|

e|-----------------------------------------------------------------|
B|-----------------------------------------------------------------|
G|---4-2-----------------------------------------------------------|
D|-2-4-2-----------------------------------------------------------|
A|-2-2-0-----------------------------------------------------------|
E|-0---------------------------------------------------------------|

e|---------------10-------------------------------------------|
B|-10-12-10-8-8b---10-8-10*-12-10*-12-10*-12-10*-12-----------|
G|------------------------------------------------------------|
D|------------------------------------------------------------|
A|------------------------------------------------------------|
E|------------------------------------------------------------|

e|------------------------------------------------------------|
B|------------------------------------------------------------|
G|-2*4*7*9*12*------------------------------------------------|
D|-2-4-7-9-12-------------------------------------------------|
A|-0-2-5-7-10-------------------------------------------------|
E|------------------------------------------------------------|

e|---------------------------------------------------------------|
B|---------------------------------------------------------------|
G|-7-------------------------------------------------------------|
D|-7-5-4-2-5-----------------------------------------------------|
A|-5-5-4-2-5-----------------------------------------------------|
E|---3-2-0-3-----------------------------------------------------|

e|-------------------------10-|17------|----------------------|
B|---10--10-10*--10-9-10-12---|--22-22*|-21-19-21-19-17~-17-15|
G|-77--77--7--------------------------------------------------|
D|------------------------------------------------------------|
A|------------------------------------------------------------|
E|------------------------------------------------------------|

e|------------------0------------------------------------------|
B|------------------2------------------------------------------|
G|-7-7-7-9-11-55----2------------------------------------------|
D|-7-7--------55----2------------------------------------------|
A|------------33-2b-0------------------------------------------|
E|-------------------------------------------------------------|

| /  slide up
| \  slide down
| h  hammer-on
| p  pull-off
| ~  vibrato
| +  harmonic
| x  Mute note
| *  Play a lot
===============================================================================

 
 
Hey Rosetta - Black Heart Tab :: indexed at Ultimate Guitar.
Black Heart tabs @ 911Tabs

Quick tip, so you can enjoy Black Heart Tab even more:

Try out the AutoScroller option ... It scrolls the page for you, so you can totally focus on nailing that solo. You can choose among different speeds using your mouse or your keyboard (keys 0, 1, 2 and 3).

Show us your talent, perform Black Heart Tab!

Here you can post a video or audio performance. Tell me more ...
Where can we find your performance? Tell me more ...
Your comment:
Please, log in to post your performance.