Artists by letter: A B C D E F G H I J K L M N O P Q R S T U V W X Y Z 0-9

 
Its Your Life Tab
Francesca Battistelli - Its Your Life
From Debut Album (Also heard on "Biggest Loser" TV show)
Standard Tuning 
Tabbed by jjhand

Please rate or comment on this tab.

Intro:  play 2x with mild distortion (dist)
   G                           F#            Em
e|---------------------------|-------------------------|
B|---------------------------|-------------------------|
G|-12---12---12-12---12---12-|-11---11---11--9---9---9-|
D|---------------------------|-------------------------|
A|-10---10---10-10---10---10-|-9----9----9---7---7---7-|
E|---------------------------|-------------------------|


Verse 1:                                              * dist off
e|-------------|--------------|--------------|-----------------|-------------|
B|-------------|--------------|--------------|-----------------|-------------|
G|-7-----------|-(7)----------|--------------|-------------7NH-|-------------|
D|-------------|--------------|--rest--------|---------4NH-----|--rest-------|
A|-5-----------|-(5)----------|--------------|-----------------|-------------|
E|-------------|--------------|--------------|-----------------|-------------|

  rest until Chorus



Chorus (0:33) -  dist on
   Em         G            D    A    Em                      G
e|-0----0---0-3----3---3-|-----------0----0---0-|-0----0---0-3----3---3-|
B|-0----0---0-0----0---0-|-3----2----0----0---0-|-0----0---0-0----0---0-|
G|-0----0---0-0----0---0-|-2----2----0----0---0-|-0----0---0-0----0---0-|
D|-2----2---2-0----0---0-|-0----2----2----2---2-|-2----2---2-0----0---0-|
A|-2----2---2-2----2---2-|------0----2----2---2-|-2----2---2-2----2---2-|
E|-0----0---0-3----3---3-|-----------0----0---0-|-0----0---0-3----3---3-|

   D    A    G            Em                       Asus4
e|-----------3----3---3-|-0----0---0-0-0-0-0---0-|---------------------------|
B|-3----2----0----0---0-|-0----0---0-0-0-0-0---0-|-------3--3-3-------3--3-3-|
G|-2----2----0----0---0-|-0----0---0-0-0-0-0---0-|-2--2--2--2-2-2--2--2--2-2-|
D|-0----2----0----0---0-|-2----2---2-2-2-2-2---2-|-2--2--2--2-2-2--2--2--2-2-|
A|------0----2----2---2-|-2----------------------|-0--0--0--0-0-0--0--0--0-0-|
E|-----------3----3---3-|-0----------------------|---------------------------|



Play Intro again



Verse 2 - Play Verse 1 part, but add: 

second clean guitar, play 4x
e|------------------------|------------------------|
B|-3-----3-----2-----2--3-|-2-----2-----2-----0--2-|
G|-2--2--2--2--2--2--2--2-|-2--2--2--2--2--2--2--2-|
D|------------------------|------------------------| 
A|------------------------|------------------------|
E|------------------------|------------------------|
   palm mute all notes


Play Chorus again, but change last bar (Asus4 chords) to

e|---------------------------------|
B|-3-3-3---2-2-2---0-0-0---2-2-2---|
G|-2-2-2---2-2-2---2-2-2---2-2-2---|
D|-2-2-2---2-2-2---2-2-2---2-2-2---|
A|-0-0-0---0-0-0---0-0-0---0-0-0---|
E|---------------------------------|



Break (Distorted guitar):
   D/F#                     G                        Bb
e|-2--2--2--2--2--2--2--2-|-3--3--3--3--3--3--3--3-|-1--1--1--1--1--1--1--1-|
B|-3--3--3--3--3--3--3--3-|-0--0--0--0--0--0--0--0-|-3--3--3--3--3--3--3--3-|
G|-2--2--2--2--2--2--2--2-|-0--0--0--0--0--0--0--0-|-3--3--3--3--3--3--3--3-|
D|-0--0--0--0--0--0--0--0-|-0--0--0--0--0--0--0--0-|-3--3--3--3--3--3--3--3-|
A|-0--0--0--0--0--0--0--0-|-2--2--2--2--2--2--2--2-|-1--1--1--1--1--1--1--1-|
E|-2--2--2--2--2--2--2--2-|-3--3--3--3--3--3--3--3-|------------------------|



Mini-Solo - The notes are pretty much the same hammer-on 
            Play with the music to get rhythm. 
e|-------------------------|---------------------------|------------------------------|
B|-------------------------|---------------------------|-10-10-10-10------------------|
G|-----7-----7-----7-----7-|-9p7-----7-----7-----7-----|-7--7--7--7-----7-----7-----7-|
D|-7h9---7h9---7h9---7h9---|-----7h9---7h9---7h9---7h9-|------------7h9---7h9---7h9---|
A|-------------------------|---------------------------|------------------------------|
E|-------------------------|---------------------------|------------------------------|

                                  Chorus - different rhythm
e|-------------------------------|-0--------3---------|--------------------|
B|-------------------------------|-0--------0---------|-3---------2--------|
G|-----7-----7-----7-----7-----7-|-0--------0---------|-2---------2--------|
D|-7h9---7h9---7h9---7h9---7h9---|-2--------0---------|-0---------2--------|
A|-------------------------------|-2--------2---------|-0---------0--------|
E|-------------------------------|-0--------3---------|--------------------|


Pick-up with normal chorus again and play until end


End:
e|-3----3---3-2----2---2-|-0----0---0-2----2---2-|-3----3---3-2----2---2-|
B|-0----0---0-3----3---3-|-2----2---2-3----3---3-|-0----0---0-3----3---3-|
G|-0----0---0-2----2---2-|-2----2---2-2----2---2-|-0----0---0-2----2---2-|
D|-0----0---0-0----0---0-|-2----2---2-0----0---0-|-0----0---0-0----0---0-|
A|-2----2---2-0----0---0-|-0----0---0-0----0---0-|-2----2---2-0----0---0-|
E|-3----3---3-2----2---2-|------------2----2---2-|-3----3---3-2----2---2-|

e|-0----0---0-0----0---0-|-3--------2---------|-0------------------|
B|-2----2---2-2----2---2-|-0--------3---------|-2------------------|
G|-2----2---2-2----2---2-|-0--------2---------|-2------------------|
D|-2----2---2-2----2---2-|-0--------0---------|-2------------------|
A|-0----0---0-0----0---0-|-2--------0---------|-0------------------|
E|-----------------------|-3------------------|--------------------|



Key:
| /  slide up
| \  slide down
| h  hammer-on
| p  pull-off
| ~  vibrato
| NH natural harmonic, lightly touch fret indicated and pick
| x  Mute note

 
 
Francesca Battistelli - Its Your Life Tab :: indexed at Ultimate Guitar.
Its Your Life tabs @ 911Tabs

Quick tip, so you can enjoy Its Your Life Tab even more:

If you spend just 10 seconds to register, you will be able to comment on all the chords and tabs and rate them. You will as well be able to comment on videos of your fellow guitarists and give them ratings from 1 to 5 ... And - of course - you can share your own videos with them and see what they think of you. :)
Click here to join us!

Show us your talent, perform Its Your Life Tab!

Here you can post a video or audio performance. Tell me more ...
Where can we find your performance? Tell me more ...
Your comment:
Please, log in to post your performance.