Artists by letter: A B C D E F G H I J K L M N O P Q R S T U V W X Y Z 0-9

 
It Ends Tab
Song: It Ends
Artist: Faber Drive
Album: Secondhand Surgery
Tabbed by Alexander Minas ([email protected])

Hey guys, this is my 1st tab from one of my favorite songs from Faber Drive.
If you see any errors or have any sugesstions, you can email me at the adress above :).

Standard Tuning

Key:
h: hammer-on
p: pull-off
/: slide up
\: slide down
+: harmonic
~: vibrato
x: palm mute
U: strum up
D: strum down
Intro/Verse
e|---------------|
b|---------------|
g|----4-----4----|
d|---2-2---2-4---|
a|--4-----0------| (x5)
E|---------------|

Prechorus
e|-0000000000--0000000000-----------------------|
b|-0000000000--0000000000-----------------------|
g|-3333333333--6666666666-----------------------|
d|-4444444444--7777777777-----------------------|
a|-4444444444--7777777777-----------------------|
E|-2222222222--5555555555-----------------------|
   DDDDUDDDDU  DDDDUDDDDU

Chorus
e|-0-000--00000--0-000--00000-------------|
b|-0-000--00000--0-000--00000-------------|
g|-4-444--66666--2-222--11111-------------|
d|-4-444--66666--2-222--22222-------------|
a|-2-222--44444--0-000--22222-----(x3)----|
E|-0-000--00000--0-000--00000-------------|
   D DDU  UDDDU  D DDU  UDDDU
e|--0--|
b|--0--|
g|--2--|
d|--2--|     the way...." end on this
a|--0--|
E|--0--|
*This is the easier way to play the chorus and te actual way*

*If you want to play the chorus part with more melody, play it this way, which I 
really like better :)*

e|-0-000--00000-----------0-000--00000----------------------------|
b|-0-000--00000-----------0-000--00000----------| *Oh! |11|11|11--|
g|-8-888--99999-----------6-666--11111----------------------------|  Not to get confused
d|-9-999--11|11|11|11|11--7-777--22222----(x3)--------------------|  W/1s only
a|-9-999--11|11|11|11|11--7-777--22222----------------------------|
E|-7-777--99999-----------5-555--00000----------------------------|
   D DDU  UDDDU           D DDU  UDDDU
e|--0--|
b|--0--|
g|--6--|
d|--7--|     the way..." end on this
a|--7--|
E|--5--|

Play the intro/verse section.  Then comes guitar 2 for the verse
Guitar 2 Plays this part
e|-------4-------4-------4-7-5-4-54--------4-------4-------4-7-5-4-52--|
b|---3/45-5--3/45-4--3/45-5------------3/45-5--3/45-4--3/45-5----------|
g|---------------------------------------------------------------------|
d|---------------------------------------------------------------------|
a|---------------------------------------------------------------------|
E|---------------------------------------------------------------------|

*Play prechorus and chorus again*

e|--0--|(x8)
b|--0--|
g|--2--|
d|--2--|     the way...." this will lead to the bridge
a|--0--|
E|--0--|

*Or you can do it like this*
e|--0--|
b|--0--|
g|--6--|
d|--7--|(x8)
a|--7--|
E|--5--|

Bridge
e|----0--------0-------0--------|      |--0--|
b|----0--------0-------0--------|      |--0--|
g|----6--------2-------4--------|      |--3--|
d|----6-(x18)--2-(x9)--2-(x9)---|(x2)  |--4--|
a|----4--------0-------2--------|      |--4--|
E|----0--------0-------0--------|      |--2--|

Breakdown
e|--------------------|     |--0--|
b|--------4-----------|     |--0--|
g|---4-----6--2---1---|     |--1--|
d|--4-4--6---2-2-2-2--|(x2) |--2--|
a|-2----4---0---2-----|     |--2--|
E|--------------------|     |--0--|

*Play Chorus twice*

Outro

e|------------0--|
b|-----4------0--|
g|---------4--2--|
d|----4-4-4-4-2--|
a|---4---2----0--|
E|------------0--|

END
Any errors you see, lemme know

 
 
Faber Drive - It Ends Tab :: indexed at Ultimate Guitar.
It Ends tabs @ 911Tabs

About the artist behind It Ends Tab:

Faber Drive is a Pop Punk band from Mission, British Columbia, Canada. They are known for touring with bands such as Hedley,Marianas Trench, and Simple Plan. They have gained a huge amount of popularity in many parts of Canada.

Already well-known for a local fan base, Faber Drive released a limited edition three-song EP under the band name Faber. Due to legal issues, the band changed their name to Faber Drive.[citation needed]

Their debut album, Seven Second Surgery, was released on May 1, 2007 under 604 Records.

Discovered by Nickelback's Chad Kroeger and signed to his 604 Records Label[1]

The second single from Seven Second Surgery is "Tongue Tied".

The third single "When I'm With You" was previewed a month before it was released on Canadian gossip website isthishappening.com.

Faber Drive's Second Chance won a 2008 Canadian Radio Music Award for Best New Hot AC Band of The Year.[2]

Indexed at Wikipedia.

Show us your talent, perform It Ends Tab!

Here you can post a video or audio performance. Tell me more ...
Where can we find your performance? Tell me more ...
Your comment:
Please, log in to post your performance.