Artists by letter: A B C D E F G H I J K L M N O P Q R S T U V W X Y Z 0-9

 
Lightswitch Tab
Title: Light Switch
Artist: Dredg
Album: The Pariah, The Parrot, The Delusion
Tabbed by: Mirza
Email me with any comments: [email protected]
I am taking requests for the new album. The song with the most requests is being tabbed.


INTRO/VERSE

E|----------------------------------------------------------|l
B|----------------------------------------------------------|l
G|------------0--3-----------0-------------0-----0------0---|l
D|-------0h3-----------3--------0-----0h3-------------------|l
A|--------------------------------------------3-----1p---0--|l
E|--2/3-------------3-----3--------3------------------------|l

E|----------------------------------------------------------|l
B|----------------------------------------------------------|l
G|------------0--3-----------0-------------0-----0------0---|l
D|-------0h3-----------3--------0-----0h3-------------------|l
A|--------------------------------------------3-----1p---0--|l
E|----3-------------3-----3--------3------------------------|l

E|-----------------------------------------------------------|l
B|-----------------------------------------------------------|l
G|------------0--3-----------0-------------0-----0------0----|l
D|-------0h3-----------3--------0-----0h3--------------------|l
A|--------------------------------------------3-----1p---0---|l
E|----3-------------3-----3--------3-------------------------|l

E|----------------------------------------------------------|l
B|----------------------------------------------------------|l
G|------------0--3-----------0-------------0-----0------0---|l
D|-------0h3-----------3--------0-----0h3-------------------|l
A|--------------------------------------------3-----3/5-----|l
E|----3-------------3-----3--------3------------------------|l

E|----------------------------------------------------------|l
B|----------------------------------------------------------|l
G|------------0--3-----------0-------------0-----0------0---|l
D|-------0h3-----------3--------0-----0h3-------------------|l
A|--------------------------------------------3-----1p---0--|l
E|----3-------------3-----3--------3------------------------|l

E|----------------------------------------------------------|l
B|----------------------------------------------------------|l
G|------------0--3-----------0-------------0-----0------0---|l
D|-------0h3-----------3--------0-----0h3-------------------|l
A|--------------------------------------------3-----1p------|l
E|----3-------------3-----3--------3------------------------|l

CHORUS
E|------------------------------------------------------|l
B|--8--------8--------6-----4--------4--------3---------|l
G|-----8--------8--------7-----5--------5--------3------|l
D|--------8--------8--------------5--------5------------|l
A|------------------------------------------------------|l
E|------------------------------------------------------|l

E|-------------------------------------------------|l
B|--8--------8--------10------11----------11-------|l
G|-----8--------8---------10------12----------12---|l
D|--------8--------8------------------12-----------|l
A|-------------------------------------------------|l
E|-------------------------------------------------|l

E|------------------------------------------------------|l
B|--8--------8--------6-----4--------4--------3---------|l
G|-----8--------8--------7-----5--------5--------3------|l
D|--------8--------8--------------5--------5------------|l
A|------------------------------------------------------|l
E|------------------------------------------------------|l

E|--------------------------------------------------|l
B|--8--------8--------10------11----------11--------|l
G|-----8--------8---------10------12----------12----|l
D|--------8--------8------------------12------------|l
A|--------------------------------------------------|l
E|--------------------------------------------------|l


VERSE:
E|-----------------------------------------------------------|l
B|-----------------------------------------------------------|l
G|------------0--3-----------0-------------0-----0------0----|l
D|-------0h3-----------3--------0-----0h3--------------------|l
A|--------------------------------------------3-----1p---0---|l
E|--2/3-------------3-----3--------3-------------------------|l

E|---------------------------------------------------------|l
B|---------------------------------------------------------|l
G|------------0--3-----------0-------------0-----0---------|l
D|-------0h3-----------3--------0-----0h3------------------|l
A|--------------------------------------------3-----1------|l
E|----3-------------3-----3--------3-----------------------|l

E|-----------------------------------------------------------|l
B|-----------------------------------------------------------|l
G|------------0--3-----------0-------------0-----0------0----|l
D|-------0h3-----------3--------0-----0h3--------------------|l
A|--------------------------------------------3-----1p---0---|l
E|----3-------------3-----3--------3-------------------------|l

E|---------------------------------------------------------|l
B|---------------------------------------------------------|l
G|------------0--3-----------0-------------0-----0---------|l
D|-------0h3-----------3--------0-----0h3------------------|l
A|--------------------------------------------3-----3--1---|l
E|----3-------------3-----3--------3-----------------------|l

E|-----------------------------------------------------------|l
B|-----------------------------------------------------------|l
G|------------0--3-----------0-------------0-----0------0----|l
D|-------0h3-----------3--------0-----0h3--------------------|l
A|--------------------------------------------3-----1p---0---|l
E|----3-------------3-----3--------3-------------------------|l

E|---------------------------------------------------------|l
B|---------------------------------------------------------|l
G|------------0--3-----------0-------------0-----0---------|l
D|-------0h3-----------3--------0-----0h3------------------|l
A|--------------------------------------------3-----3--1---|l
E|----3-------------3-----3--------3-----------------------|l


CHORUS:

E|------------------------------------------------------|l
B|--8--------8--------6-----4--------4--------3---------|l
G|-----8--------8--------7-----5--------5--------3------|l
D|--------8--------8--------------5--------5------------|l
A|------------------------------------------------------|l
E|------------------------------------------------------|l

E|--------------------------------------------------|l
B|--8--------8--------10------11----------11--------|l
G|-----8--------8---------10------12----------12----|l
D|--------8--------8------------------12------------|l
A|--------------------------------------------------|l
E|--------------------------------------------------|l

E|------------------------------------------------------|l
B|--8--------8--------6-----4--------4--------3---------|l
G|-----8--------8--------7-----5--------5--------3------|l
D|--------8--------8--------------5--------5------------|l
A|------------------------------------------------------|l
E|------------------------------------------------------|l

E|-------------------------------------------------|l
B|--8--------8--------10------11----------11-------|l
G|-----8--------8---------10------12----------12---|l
D|--------8--------8------------------12-----------|l
A|-------------------------------------------------|l
E|-------------------------------------------------|l


Bridge

E|----------------------------------------10-------|l
B|--13--11--10------10----13--11--10----------13---|l
G|--------------12--------------------12-----------|l
D|-------------------------------------------------|l
A|-------------------------------------------------|l
E|-------------------------------------------------|l

E|-------------------------------------|l
B|--13--1113---11---10--------10------|l
G|-------------------------12----------|l
D|-------------------------------------|l
A|-------------------------------------|l
E|-------------------------------------|l

CRUNCH/DISTORTION
E|--------------------|l
B|--------------------|l
G|--------------------|l
D|--5----------4------|l
A|--5----------5------|l
E|--3----------5------|l   repeat as necessary

Listen carefully to the picking rhythm in the verses. There are little nuances such the 
of from Bb to A on the 5 string. The bridge does not feature a "main" guitar part, but 
above will do. That's about it. This is my first tab, it looks kind of messy.

 
 
Dredg - Lightswitch Tab :: indexed at Ultimate Guitar.
Lightswitch tabs @ 911Tabs

Quick tip, so you can enjoy Lightswitch Tab even more:

If you spend just 10 seconds to register, you will be able to comment on all the chords and tabs and rate them. You will as well be able to comment on videos of your fellow guitarists and give them ratings from 1 to 5 ... And - of course - you can share your own videos with them and see what they think of you. :)
Click here to join us!

Show us your talent, perform Lightswitch Tab!

Here you can post a video or audio performance. Tell me more ...
Where can we find your performance? Tell me more ...
Your comment:
Please, log in to post your performance.