Artists by letter: A B C D E F G H I J K L M N O P Q R S T U V W X Y Z 0-9

 
Catch Me Tab
                          Catch Me - Demi Lovato

How cute is this song?
Aww, I love it!
If you have any corrections, leave a comment :D

Verse:
e|------------------------------------|
B|----9---9---9---9----9---9---9---9--|
G|----9---9---9---9----9---9---9---9--|
D|--7---7---7---7---------------------| x2
A|-------------------7---7---7---7----|
E|------------------------------------|

e|-----------------------------------------------------------------|
B|----5---5---5---5---4---4---4---4--------------------------------|
G|----6---6---6---6---4---4---4---4---6---6---6---6---8---8---8----|
D|----6---6---6---6---4---4---4---4---7---7---7---7---9---9---9----|
A|--4---4---4---4--------------------------------------------------|
E|------------------4---4---4---4---5---5---5---5---7---7---7---7--|

Chorus:
e|-------------------------------------------------------------------|
B|-------------------------------------------------------------------|
G|--6---6---8---8----9---9---8---8---6---6---8---8----9---9---9---9--|
D|--7---7---9---9----9---9---9---9---7---7---9---9----9---9---9---9--| x2
A|-----------------7---7----------------------------7---7---7---7----|
E|-5---5---7---7------------7---7---5---5---7---7--------------------|

Verse:
e|------------------------------------|
B|----9---9---9---9----9---9---9---9--|
G|----9---9---9---9----9---9---9---9--|
D|--7---7---7---7---------------------| x2
A|-------------------7---7---7---7----|
E|------------------------------------|

e|-----------------------------------------------------------------|
B|----5---5---5---5---4---4---4---4--------------------------------|
G|----6---6---6---6---4---4---4---4---6---6---6---6---8---8---8----|
D|----6---6---6---6---4---4---4---4---7---7---7---7---9---9---9----|
A|--4---4---4---4--------------------------------------------------|
E|------------------4---4---4---4---5---5---5---5---7---7---7---7--|

Chorus:
e|-------------------------------------------------------------------|
B|-------------------------------------------------------------------|
G|--6---6---8---8----9---9---8---8---6---6---8---8----9---9---9---9--|
D|--7---7---9---9----9---9---9---9---7---7---9---9----9---9---9---9--| x2
A|-----------------7---7----------------------------7---7---7---7----|
E|-5---5---7---7------------7---7---5---5---7---7--------------------|

Bridge:
e|----------------------------------------------------------------------|
B|----5---5---5---5---------------------5---5---------------------------|
G|----6---6---6---6---8---8-------------6---6-----8---8---6---6---6--6--|
D|----6---6---6---6---9---9---10--10----6---6-----9---9---7---7---7--7--|
A|--4---4---4---4-------------9---9---4---4-----------------------------|
E|------------------7---7---8---8---------------7---7----5--5---5---5---|

e|-------------------------------------------------|
B|-------------------------------------------------|
G|---2---2---2---2---4---4---4---4---5---5---5---5-|
D|---4---4---4---4---6---6---6---4---7---7---7---7-|
A|---4---4---4---4---6---6---6---6---7---7---7---7-|
E|-2---2---2---2---4---4---4---4---5---5---5---5---|

Chorus:
e|------------------------------------------------------00000000--|
B|-------0----------0-------0-------0--------0-------0--00000000--|
G|-------6----------8-------9-------9--------6-------8--99999999--|
D|-----7----------9-------9-------9--------7-------9----99999999--|
A|--------------------7-7-------------------------------77777777--|
E|-5-5--------7-7-------------7-7------5-5------7-7---------------|

e|-0000-0000-0000-0000--|    
B|-0000-0000-5555-0000--|    
G|-6666-8888-6666-4444--|    
D|-7777-9999-6666-4444--| x3 
A|-7777-9999-4444-2222--|    
E|-5555-7777------------|    

Outro:
e|--0~--0~--0~--|
B|--0~--0~--0~--|
G|--6~--8~--9~--|
D|--7~--9~--9~--|
A|--7~--9~--7~--|
E|--5~--7~------|

 
 
Demi Lovato - Catch Me Tab :: indexed at Ultimate Guitar.
Catch Me tabs @ 911Tabs

Quick tip, so you can enjoy Catch Me Tab even more:

If you don't really know how to deal with "Absus4" chord and his equally confusing brothers, just put the mouse cursor over them and you will be shown a helpful chord diagram.

Performances of "Catch Me Tab"

Show us your talent, perform Catch Me Tab!

Here you can post a video or audio performance. Tell me more ...
Where can we find your performance? Tell me more ...
Your comment:
Please, log in to post your performance.