Artists by letter: A B C D E F G H I J K L M N O P Q R S T U V W X Y Z 0-9

 
First Date Tab
Song: First Date
Artist: Danko Jones

Tabbed by: Thomas Cordeille

Standard tuning

This is my first tab but it's 100% correct!

Intro

e-------------------------|
b-------------------------|
g-------------------------|        Twice
d-2--2-5-2--2-5-7--7-5-2--|
a-2--2-5-2--2-5-7--7-5-2--|
E-0--0-3-0--0-3-5--5-3-0--|


Verse 1

e-------------------------|
b-------------------------|
g-------------------------|       4 times
d-2--2-5-2--2-5-7--7-5-2--|
a-2--2-5-2--2-5-7--7-5-2--|
E-0--0-3-0--0-3-5--5-3-0--|


Pre-Chorus

e----------------------------------------------------|
b----------------------------------------------------|
g----------------------------------------------------|
d-9-9-9-9-9-9-9-9--9-9-9-9-9-2-2-2--9-9-9-9-9-9-9-9--|
a-9-9-9-9-9-9-9-9--9-9-9-9-9-2-2-2--9-9-9-9-9-9-9-9--|
E-7-7-7-7-7-7-7-7--7-7-7-7-7-0-0-0--7-7-7-7-7-7-7-7--|


Chorus 1

e-------------------------------------------------------------------------|
b-------------------------------------------------------------------------|
g-9-9-9-9-9-9-9-9--9-9-9-9-9-9-9-9--7-7-7-7-12-12-12-12--9-9-9-9-9-9-9-9--|
d-9-9-9-9-9-9-9-9--9-9-9-9-9-9-9-9--7-7-7-7-12-12-12-12--9-9-9-9-9-9-9-9--|
a-7-7-7-7-7-7-7-7--7-7-7-7-7-7-7-7--5-5-5-5-10-10-10-10--7-7-7-7-7-7-7-7--|
E-------------------------------------------------------------------------|
Twice

e------------------|
b------------------|
g------------------|
d-9-9-9-9-9-9-9-9--|  4 times
a-9-9-9-9-9-9-9-9--|
E-7-7-7-7-7-7-7-7--|


Verse 2

e-------------------------|
b-------------------------|
g-------------------------|       4 times
d-2--2-5-2--2-5-7--7-5-2--|
a-2--2-5-2--2-5-7--7-5-2--|
E-0--0-3-0--0-3-5--5-3-0--|


Pre-Chorus

e----------------------------------------------------|
b----------------------------------------------------|
g----------------------------------------------------|
d-9-9-9-9-9-9-9-9--9-9-9-9-9-2-2-2--9-9-9-9-9-9-9-9--|
a-9-9-9-9-9-9-9-9--9-9-9-9-9-2-2-2--9-9-9-9-9-9-9-9--|
E-7-7-7-7-7-7-7-7--7-7-7-7-7-0-0-0--7-7-7-7-7-7-7-7--|


Chorus 2

e-------------------------------------------------------------------------|
b-------------------------------------------------------------------------|
g-9-9-9-9-9-9-9-9--9-9-9-9-9-9-9-9--7-7-7-7-12-12-12-12--9-9-9-9-9-9-9-9--|
d-9-9-9-9-9-9-9-9--9-9-9-9-9-9-9-9--7-7-7-7-12-12-12-12--9-9-9-9-9-9-9-9--|
a-7-7-7-7-7-7-7-7--7-7-7-7-7-7-7-7--5-5-5-5-10-10-10-10--7-7-7-7-7-7-7-7--|
E-------------------------------------------------------------------------|
4 times

e--------------------------------------------------------------------|
b--------------------------------------------------------------------|
g--------------------------------------------------------------------|
d-9-9-9-9-9-9-9-9--9-9-9-9-9-9-9-9--7-7-7-7-7-7-7-7--7-7-7-7-7-7-7-7-|
a-9-9-9-9-9-9-9-9--9-9-9-9-9-9-9-9--7-7-7-7-7-7-7-7--7-7-7-7-7-7-7-7-|
E-7-7-7-7-7-7-7-7--7-7-7-7-7-7-7-7--5-5-5-5-5-5-5-5--5-5-5-5-5-5-5-5-|


Bridge

e----
b----
g-9--  4 times
d-9--
a-7--
E----

Just before he says "Anything you want..."
You make a little slide, it's barely noticable, but it's there

e------|
b------|
g-9/0--
d-9/0--
a-7/0--
E------

Chorus 3

e---------------------------------------|
b---------------------------------------|
g-7-7-7-7-12-12-12-12--9-9-9-9-9-9-9-9--|
d-7-7-7-7-12-12-12-12--9-9-9-9-9-9-9-9--|
e-5-5-5-5-10-10-10-10--7-7-7-7-7-7-7-7--|
E---------------------------------------|

e-------------------------------------------------------------------------|
b-------------------------------------------------------------------------|
g-9-9-9-9-9-9-9-9--9-9-9-9-9-9-9-9--7-7-7-7-12-12-12-12--9-9-9-9-9-9-9-9--|
d-9-9-9-9-9-9-9-9--9-9-9-9-9-9-9-9--7-7-7-7-12-12-12-12--9-9-9-9-9-9-9-9--|
a-7-7-7-7-7-7-7-7--7-7-7-7-7-7-7-7--5-5-5-5-10-10-10-10--7-7-7-7-7-7-7-7--|
E-------------------------------------------------------------------------|
This last part is played 3 times


Outro

e--------------------|
b--------------------|
g--------------------|     Times 4
d-9-9-9-9-9-9-9-9-9--|
a-9-9-9-9-9-9-9-9-9--|
E-7-7-7-7-7-7-7-7-7--|

e------|
b------|
g-9/0--
d-9/0--
a-7/0--
E------
This one a bit longer than the previous slide, which was a short one.


That's it! It should be 100% correct. If you got trouble decidin what to play when just 
to the song and you'll figure it out!

 
 
Danko Jones - First Date Tab :: indexed at Ultimate Guitar.
First Date tabs @ 911Tabs
People who played Danko Jones - First Date Tab also played these songs by Danko Jones:
Had Enough Tab, First Date Tab, Code Of The Road Tab, Full Of Regret Tab, Take Me Home Chords, Forget My Name Tab

About the artist behind First Date Tab:

Danko Jones is a three-piece hard rock band from Toronto, Canada.

The band consists of Danko Jones (vocals/guitar), JC (also known as John Calabrese) (bass guitar), and Dan Cornelius (drums).

Indexed at Wikipedia.

Show us your talent, perform First Date Tab!

Here you can post a video or audio performance. Tell me more ...
Where can we find your performance? Tell me more ...
Your comment:
Please, log in to post your performance.