Artists by letter: A B C D E F G H I J K L M N O P Q R S T U V W X Y Z 0-9

 
Albatross Tab
========================================================================
                   Corrosion Of Conformity - Albatross
========================================================================

           Words and Music by: Pepper Keenan and Reed Mullin
                         Album: Deliverance
                       Tabbed by: Cade Nickels


Tune down one whole step: D G C F A D
Slow Rock

Here are the seven basic chords you need to know:

 D5  C5  G5  G#5 F5  E5  C#5
 x   x   x   x   x   x   x
 x   x   x   x   x   x   x
 x   x   x   x   5   x   x
 7   5   x   x   3   3   6
 5   3   5   6   x   2   4
 x   x   3   4   x   x   x
 --------------------------
 x   x   x   x   x   x   x
 x   x   x   x   x   x   x
 x   x   x   x   x   x   x
 x   x   x   x   x   x   x
 12  10  17  18  15  13  11
 10  8   15  16  13  12  9


-Note that all bends are "Full bends" unless otherwise stated.


 Intro
  *Gtr.1     Rhy.Fig.1
|----------|------------------------------------------|
|----------|------------------------------------------|
|----------|------------------------------------------|
|----------|------------------------------------------|
|-------10-|-10/12-12--12------10--10-10/12-12----10--|
|-------8--|-8-/10-10--10--(0)-8---8--8-/10-10----8---|
  *w/octave effect

                                   (1/2)  (1/2)
|-----------------------------------/\-----/\------|
|----------------------------------/-/----/-/------|
|---------------------------------/-/----/-/-------|
|--------------------------------/-/----/-/--------|
|--10/10-12--12------/15----15-17b/r--17b/r--15-13-|
|--8-/12-10--10-10-10/13----13-15b-r--15b-r--13-12-|

|-----------------------------------------------|
|-----------------------------------------------|
|-----------------------------------------------|
|-----------------------------------------------|
|--10/12-12--12------10----10-10/12-12----10/15-|
|--8-/10-10--10--(0)-8-----8--8-/10-10----8-/13-|

                   (end of Rhy.Fig.1)
|-----------------------------------|
|-----------------------------------|
|-----------------------------------|
|-----------------------------------|
|--15-15\10----10-10/11-11-11-11-11-|
|--13-13\8-----8--8-/9--9--9--9--9--|


 w/Rhy.Fig.1
Rhy.Fig.2 (Gtrs.II&III)   
 
    "Whoo!_                                         (1/2) (1/2)
|------------------------------|---------------------/\----/\-------|
|------------------------------|--------------------/-/---/-/-------|
|------------------------------|------------5----5-7b/r--7b/r--5--3-|
|--5/7-7--7----5--5-5/7-7----5-|-5/7-7--7---3----3-5b-r--5b-r--3--2-|
|--3/5-5--5--0-3--3-3/5-5----3-|-3/5-5--5-x-------------------------|
|------------------------------|------------------------------------|

                                              Well I'm...
                                           (end of Rhy.Fig.2)
|------------------------------|------------------------------|
|------------------------------|------------------------------|
|------------------------------|-5---5-5\---------------------|
|--5/7-7--7----5--5-5/7-7------|-3---3-3\--5----5-5/6-6-6-6-6-|
|--3/5-5--5--0-3--3-3/5-5----x-|-----------3----3-3/4-4-4-4-4-|
|------------------------------|------------------------------|


1st
 w/Rhy.Figs.1&2

  left be-hind,_  Lord, what a waste  of time.__               There...
  C5 D5       C5  D5         C5     D5   F5     G5   F5 E5  C5 D5 


 to get you,_  run on.___           How can I respect  your crime,_ 
    C5       D5        F5     C5 C#5             C5 D5      C5


 When all you crim-i-nals whine?_                   They bought and 
  D5         C5    D5            F5   G5  F5 E5  C5 D5


  sold you_  run on__    run on__       Yeah!
  C5       D5       F5   C5       C5


Chorus 
Rhy.Fig.3 (Gtrs.II&III)
                         Well, you ...
|---------------------------------|---------------------|
|---------------------------------|---------------------|
|---------------------------------|---------------------|
|--------3--3---------------------|--------------3------|
|--5-3--------5----3---3/5----3---|----------3-5---5--3-|
|------5-------------5----------5-|-3--3--1-------------|

                         you ...
|---------------------------------|---------------------|
|---------------------------------|---------------------|
|---------------------------------|---------------------|
|--------3--3---------------------|--------------3------|
|--5-3--------5----3---3/5----3---|----------3-5---5--3-|
|------5-------------5----------5-|-3--3--1-------------|

               See I was...
|---------------------------------|---------------------|
|---------------------------------|---------------------|
|---------------------------------|---------------------|
|--------3--3---------------------|--------------3------|
|--5-3--------5----3---3/5----3---|----------3-5---5--3-|
|------5-------------5----------5-|-3--3--1-------------|

       fly on,     fly_________on
|---------------------------------|---------------------|
|---------------------------------|---------------------|
|---------------------------------|---------------------|
|--------3--3---------------------|--------------3------|
|--5-3--------5----3---3/5----3---|----------3-5---5--3-|
|------5-------------5----------5-|-3--3--1-------------|


 2nd Verse
 w/Rhy.Figs.1&2 (2 times)

  My  home  is  kind     Man,  it  pays  to  be  blind___
  C5 D5       C5  D5         C5     D5   F5     G5   F5 E5  C5 D5 

  Well,  I  promise  to  forge t you,  run  on,  yeah __
    C5       D5        F5     C5 C#5             C5 D5      C5

  No  swallowed  pride,  no  concpiracy  lined,  oh. 
  D5         C5    D5            F5   G5  F5 E5  C5 D5


  Broken promise of virtue, run on, lord run on.
  C5       D5       F5   C5       C5


Chorus 
Rhy.Fig.3 (Gtrs.II&III)
                         Well, you ...
|---------------------------------|---------------------|
|---------------------------------|---------------------|
|---------------------------------|---------------------|
|--------3--3---------------------|--------------3------|
|--5-3--------5----3---3/5----3---|----------3-5---5--3-|
|------5-------------5----------5-|-3--3--1-------------|

                          Uh, you ...
|---------------------------------|---------------------|
|---------------------------------|---------------------|
|---------------------------------|---------------------|
|--------3--3---------------------|--------------3------|
|--5-3--------5----3---3/5----3---|----------3-5---5--3-|
|------5-------------5----------5-|-3--3--1-------------|

               See I was...
|---------------------------------|---------------------|
|---------------------------------|---------------------|
|---------------------------------|---------------------|
|--------3--3---------------------|--------------3------|
|--5-3--------5----3---3/5----3---|----------3-5---5--3-|
|------5-------------5----------5-|-3--3--1-------------|

       fly on,     fly_________on
|---------------------------------|---------------------|
|---------------------------------|---------------------|
|---------------------------------|---------------------|
|--------3--3---------------------|--------------3------|
|--5-3--------5----3---3/5----3---|----------3-5---5--3-|
|------5-------------5----------5-|-3--3--1-------------|



                        with your...                    god a-bove ... 
                   ~~~ 
|-------------|---------------|------------------------|---------------|
|-------------|---------------|------------------------|---------------|
|-------------|---------------|------------------------|---------------|
|-------------|---------------|------------------------|------------x\\|
|-------------|---------------|------------------------|---------------|
|--3--3--1----|-3--3--1-(1)p0-|-3--3--1----1p0-1p0-1p0-|-1-1-/10-------|


Guitar solo
                          Ohh, I_ believe_
                Grad. bend
                    (1.5)   P.M.-|  ~~~~~~~~        P.M.--| ~~~      ~~
|--------------------/\-------------------------|----------------------|
|-------------x-----/|-\------------------------|----------------------|
|-----------x------/-|--\-----------------------|--------2-5---3h5p3\2-|
|-----------------/--|---\----------------------|----3-5---------------|
|----------------/---|----\--0----/5-------(5)\-|----------------------|
|---------------2b---|-(2)------1---------------|----------------------|

                                                     semi-harm.
                                in al - ba - tross__       (1/2)
|-----------------------------------------------------|-----/---------|
|--3h5p3\2h3p2p0-0h2p0--------------------------10-10-|-(10)b---------|
|----------------------3-3h5p3p0h3\5----(5)\/12-------|---------------|
|-----------------------------------------------------|---------------|
|-----------------------------------------------------|---------------|
|-----------------------------------------------------|---------------|

    
|--------------------------------|
|--12b-10h12-10------------------|
|---------------12-(12)\----1012-|
|--------------------------------|
|--------------------------------|
|--------------------------------|

                                                 ~~~~~~~~~~
|-------------------------------------------------------------|
|--10h11p10----10-10h11p10----10------------------------------|
|-----------12-------------12----10h12p10----10h12---------10-|
|-----------------------------------------12------------------|
|-------------------------------------------------------------|
|-------------------------------------------------------------|

                                                ~~~~~~~~~
|---------10-----------10-----------10-------------------|
|------10----13-----10----13-----10----13-13b--(13)------|
|--12b----------12b----------12b-------------------------|
|--------------------------------------------------------|
|--------------------------------------------------------|
|--------------------------------------------------------|

                          
    ~~~~~~~~                   ~~~~~~~                  ~~~~
|--------------13-15-15b----15b-------15-15b--|-(15)p13-----|
|--13b------15--------------------------------|---------15--|
|---------------------------------------------|-------------|
|---------------------------------------------|-------------|
|---------------------------------------------|-------------|
|---------------------------------------------|-------------|


Chorus 
Rhy.Fig.3 (Gtrs.II&III)
                         Well, you ...
|---------------------------------|---------------------|
|---------------------------------|---------------------|
|---------------------------------|---------------------|
|--------3--3---------------------|--------------3------|
|--5-3--------5----3---3/5----3---|----------3-5---5--3-|
|------5-------------5----------5-|-3--3--1-------------|

                         you ...
|---------------------------------|---------------------|
|---------------------------------|---------------------|
|---------------------------------|---------------------|
|--------3--3---------------------|--------------3------|
|--5-3--------5----3---3/5----3---|----------3-5---5--3-|
|------5-------------5----------5-|-3--3--1-------------|

               cause I was...
|---------------------------------|---------------------|
|---------------------------------|---------------------|
|---------------------------------|---------------------|
|--------3--3---------------------|--------------3------|
|--5-3--------5----3---3/5----3---|----------3-5---5--3-|
|------5-------------5----------5-|-3--3--1-------------|

       fly on,     fly_________on
|---------------------------------|---------------------|
|---------------------------------|---------------------|
|---------------------------------|---------------------|
|--------3--3---------------------|--------------3------|
|--5-3--------5----3---3/5----3---|----------3-5---5--3-|
|------5-------------5----------5-|-3--3--1-------------|



2nd Chorus
 w/Rhy.Figs.1&2 (2 times)

   Well, I should have  seen_  the  sign,_      now the memorys
  C5 D5                   C5         D5    C5   D5           F5    

 far behind          it was no big loss       fly on_     albatross 
     G5    F5 E5  C5 D5            C5    D5         F5         C5 


         yeah!"
       ~~~~~~~              ~~~~                   ~~~~~~~~
|-------------------|-13b--13---10-----------------------------|
|-------------------|--------------13----------------------10--|
|-------------------|-----------------14\12-10-----------------|
|-------------------|------------------------------------------|
|--x/15-------------|--------------------------12\10-----------|
|-------------x/17\-|------------------------------------------|

                                                        
|--13p10----13p10----13p10----13p10----13p10----13p10----18b--|
|--------10-------10-------10-------10-------10-------10------|
|-------------------------------------------------------------|
|-------------------------------------------------------------|
|-------------------------------------------------------------|
|-------------------------------------------------------------|

                               ~~~~       
|--17-16-15-13--15b--13-----15b-----------15-16-18b-17-15-20b--|
|-----------------------15---------18b-------------------------|
|--------------------------------------------------------------|
|--------------------------------------------------------------|
|--------------------------------------------------------------|
|--------------------------------------------------------------|

                        
|--(20)----20-20-20-20----------15---------------------------|
|-----------------------20b--18----18b-15----15--------------|
|-----------------------------------------17----17b----(17)--|
|------------------------------------------------------------|
|------------------------------------------------------------|
|------------------------------------------------------------|

                                                 ~~~~~
|----------------------|------------------------------|
|----------------------|------------------------------|
|--14p12\10-(10)-(10)\-|--------10-12-12b-12p10-12----|
|----------------------|-/10-12-----------------------|
|----------------------|------------------------------|
|----------------------|------------------------------|

                                       
|---------------------------------------------------------------|
|--13b--13-13b--13-13b--13-13br-------------13-13b-13----(13)\--|
|--12b-----12b-----12b-----12br--10-----12b----12b-12----(12)\--|
|-----------------------------------12--------------------------|
|---------------------------------------------------------------|
|---------------------------------------------------------------|


|------------------------------------------|-------------------------|
|--13b--13b--13b--13b--------13b--13b--13b-|-13b--13-13b--13-13b--13-|
|--12b--12b--12b--12b--10----12b--12b--12b-|-12b-----12b-----12b-----|
|-------------------------12---------------|-------------------------|
|------------------------------------------|-------------------------|
|------------------------------------------|-------------------------|

          ~~~~
|-------------|------------------------|---------------------------|
|--13b--------|-----13-13b-13----(13)\-|-----13-----13-13b--13-13b-|
|--12b-10-----|-12b----12b-12----(12)\-|-12b----12b----12b-----12b-|
|---------12--|------------------------|---------------------------|
|-------------|------------------------|---------------------------|
|-------------|------------------------|---------------------------|

           Fly on...                                         ~~~~~~
|--------|------------------|--------------------------------------|
|--------|-13b--13-13b--13b-|-13--13-13b--13-13b--13-13b-----------|
|--10----|-12b-----12b--12b-|-12-----12b-----12b-----12b--10-------|
|-----12-|------------------|--------------------------------12----|
|--------|------------------|--------------------------------------|
|--------|------------------|--------------------------------------|

                     ~~~~~      fly on...
|-----------------------------|---------------------------|
|------13------13----------x\-|-13b--13b--13b--13b--------|
|--12b----12b-----12-(12)--x\-|-12b--12b--12b--12b-10-----|
|-----------------------------|-----------------------12--|
|-----------------------------|---------------------------|
|-----------------------------|---------------------------|
                   ~~~~~albatross...
|-----------------------|---------------------------|
|--13b-10---------------|-13b--13b--13b--13b--------|
|----------12b-10-12----|-12b--12b--12b--12b-10-----|
|-----------------------|-----------------------12--|
|-----------------------|---------------------------|
|-----------------------|---------------------------|
                       ~~~~
|--------------------------|-----------------------------------|
|------13-13-13-13---------|-13b--13b--13b--13b--13b-13-13-13--|
|--12b-------------12-(12)-|-12b--12b--12b--12b--12b-----------|
|--------------------------|-----------------------------------|
|--------------------------|-----------------------------------|
|--------------------------|-----------------------------------|
                                                                ~~~~~~
|----------------|------------------------|---------------------------|
|--13b--13b--13b-|-13b--13b--13b--13b-----|-----13------13------------|
|--12b--12b--12b-|-12b--12b--12b--12b-12b-|-12b----12b-----12-(12)----|
|----------------|------------------------|---------------------------|
|----------------|------------------------|---------------------------|
|----------------|------------------------|---------------------------|

  fly on_...
|-------------------------------|
|--13b--13-13b--13--------------|
|--12b-----12b-----12b----(12)\-|
|-------------------------------|
|-------------------------------|
|-------------------------------|

   fly on___.
Gtr.I                              (1/2)(1/2)
|-----------------------------------/----/-----|
|----------------------------------/----/------|
|---------------------------------/----/-------|
|--------------------------------/----/--------|
|--10/12-12--12------/13----15-17b--17b-15-13--|
|--8-/10-10--10-10-10/15----13-15b--15b-13-12--|

|---------------------------------------------|-----------------------|
|---------------------------------------------|-----------------------|
|---------------------------------------------|-----------------------|
|---------------------------------------------|-----------------------|
|--10/12-12--12------10--10-10/12-12----10/15-|-15-15\10----(10)\5----|
|--8-/10-10--10--(0)-8---8--8-/10-10----8-/13-|-13-13\8-----(8)-\3p0--|



============================================================================
|/   slide up
|\   slide down
|h   hammer-on
|p   pull-off
|~   vibrato
|+   harmonic
|x   Mute note
|b   bend
|P.M.palm mute
============================================================================
                   Learn it. Rate it. Play it.
============================================================================

Lyrics:

Well I'm feelin' left behind, Lord what a waste of time
They're coming to get you, run on
How can I respect your crime
When all you criminals whine
They bought and sold you, run on, run on

You can call me crazy
You can call me wrong
Cause I was born a liar
Albatross fly on, fly on

My home is kind, man it pays to be blind
I promise to forget you run on
No swallowed pride, no conspiracy lined
Broken promise of the virtue, run on, Lord run on

You can call me lazy
But I know where I belong
Cause I was born a liar
Albatross, fly on, fly on
With your trust in love from your God above...

I believe the Albatross is me

You can call me lazy
You can call me wrong
Cause I was born a liar
Albatross, fly on, fly on

I should have seen the signs
Now the memories far behind
It was no big loss,
Fly on, Albatross yeah 

 
 
Corrosion Of Conformity - Albatross Tab :: indexed at Ultimate Guitar.
Albatross tabs @ 911Tabs
People who played Corrosion Of Conformity - Albatross Tab also played these songs by Corrosion Of Conformity:
Stare Too Long Chords, Shelter Chords, Stare Too Long Tab, Albatross Tab, In The Arms Of God Tab, Clean My Wounds Tab

Quick tip, so you can enjoy Albatross Tab even more:

If you don't really know how to deal with "Absus4" chord and his equally confusing brothers, just put the mouse cursor over them and you will be shown a helpful chord diagram.

Show us your talent, perform Albatross Tab!

Here you can post a video or audio performance. Tell me more ...
Where can we find your performance? Tell me more ...
Your comment:
Please, log in to post your performance.