Artists by letter: A B C D E F G H I J K L M N O P Q R S T U V W X Y Z 0-9

 
Twisted Logic Tab
Coldplay - Twisted Logic
Tabbed by Gerry Strother

Tuning: Eb Ab Db Gb Bb Eb

     C   D9    E/G#   Am7
eb|--0---0------4------0----|
Bb|--1---3------5------1----|
Gb|--0---5------4------0----|
Db|--2---4------6------2----|
Ab|--3---5-------------0----|v
Eb|-------------------------|

Intro:
Sunlight opened up my eyes
To see for the first time
It opened them up
And tonight
Rivers will run dry
And not for the first time
Rivers will run

Interlude:

eb|-------2-------------0-------------0-------------2------|
Bb|------1---1---------1---1---------1---1---------1---1----|
Gb|----2-------2-----0-------0-----0-------0-----2-------2--|
Db|--------------------------------------------0------------|
Ab|-----------------------------3---------------------------| x2
Eb|-2-------------3-----------------------------------------|


Verse:

Hundreds of years in the future
There could be computers
Looking for life on earth
So don't fight for the wrong side
Say what you feel like
Say how you feel

e-----------------------------|
B-----------------------------|
G-----------------------------|
D-----------------------------|
A---7-7-7-7-5-7---------------|
E-0---------------------------|

Pre-Chorus:

You'll go backwards
But then you'll go forwards again
You'll go backwards
But then you'll go

C, D9, E/G#, Am7
C, D9, E/G#, E/G#
C, D9, E/G#, Am7
C, D9

eb|-------------------------------|
Bb|-13\12--4/6--12--5--13\12--4/6-|
Gb|-------------------------------|
Db|-------------------------------|
Ab|-------------------------------|
Eb|-------------------------------|

Interlude:

eb|------12--------12--------12-------7--------5-------4-| X2
Bb|------------------------------------------------------|
Gb|-9/13----9-9/13----9-9/12-----12\9---9\7--7---7\4-4---|
Db|------------------------------------------------------|
Ab|------------------------------------------------------|
Eb|------------------------------------------------------|


Verse:

Created then drilled and invaded
If somebody made it
Someone will mess it up
And you are not wrong to
Ask who does this belong to
It belongs to all of us

Interlude:

Chorus:

You'll go backwards but then you'll go forwards again
You'll go backwards but then you'll go forwards
You'll go backwards but then you'll go forwards again
You'll go backwards but then you'll go forwards

eb|-------------------------------------| repeated
Bb|-12-------13------12------10-------9-|
Gb|-14B16---15B17--14B16--12B14---11B13-|
Db|-------------------------------------|
Ab|-------------------------------------|
Eb|-------------------------------------|

 
 
Coldplay - Twisted Logic Tab :: indexed at Ultimate Guitar.
Twisted Logic tabs @ 911Tabs

About the artist behind Twisted Logic Tab:

Coldplay are an English alternative rock band formed in London in 1997. The group comprises vocalist/pianist/guitarist Chris Martin, lead guitarist Jonny Buckland, bassist Guy Berryman, and drummer/multi-instrumentalist Will Champion. Coldplay has been one of the most commercially successful bands of the new millennium, selling over 30 million albums. The band is also known for its hit singles, such as "Yellow", "Speed of Sound", the Grammy Award-winning "Clocks" and their latest single, "Viva La Vida".

Coldplay achieved worldwide fame with the release of their single "Yellow", followed by the success of their debut album, Parachutes (2000), which was nominated for the Mercury Prize. Both Parachutes and its follow-up, A Rush of Blood to the Head (2002), were released to commercial success; the latter was named NME's Album of the Year. X&Y (2005) received a generally positive reception. From December 2006, the band worked with producer Brian Eno on their fourth studio album, Viva la Vida or Death and All His Friends, which was released on 12 June 2008.

Coldplay's early material was compared to acts such as Jeff Buckley,[1] U2, and Travis.[2] Since the release of Parachutes, Coldplay have drawn influence from other sources, including Echo and the Bunnymen[1] and George Harrison[3] on A Rush of Blood to the Head and Johnny Cash and Kraftwerk for X&Y.[4] Coldplay have been an active supporter of various social and political causes, such as Oxfam's Make Trade Fair campaign and Amnesty International. The group has also performed at various charity projects such as Band Aid 20, Live 8, and the Teenage Cancer Trust.[5]

Indexed at Wikipedia.

Show us your talent, perform Twisted Logic Tab!

Here you can post a video or audio performance. Tell me more ...
Where can we find your performance? Tell me more ...
Your comment:
Please, log in to post your performance.