Artists by letter: A B C D E F G H I J K L M N O P Q R S T U V W X Y Z 0-9

 
Are You Beautiful Tab
 ok so I've never tabbed because it takes me forever, but i do have an ear, I don't like
song but a friend and I did it as a duet, Chris does it with Colbie Caillet.uhm the
tabs for this retarded song, are wrong. he doesn't use a damn capo. so this is for those 
It's right, because I studied the vid. and I've played it on stage already.
-------------------------------------------------------------------------------
Tabbed by: Alex Fisher
Email:[email protected]

Tuning: Standard

Verse 1
        root is g                  C          root g         Repeat X 4
second time through "ya never know"
e|---------------------------------------------------------------------------|
B|----------8----------7-----------5----------3------------------------------|
G|--------7------------7-----------5----------0------------------------------|
D|----5-----------5----------------------------------------------------------|
A|---------------------------3-----------------------------------------------|
E|------------------------------------------3--------------------------------|
   Pre-chorus     "wonder to myself"
e|---------------------------------------------------------------------------|
B|------------3----------------3---------------------------------------------|
G|--------2----------------2-------------------------------------------------|
D|---------------------------------------------------------------------------|
A|--1-----------------0------------------------------------------------------|
E|---------------------------------------------------------------------------|
Chorus "Are you Beautiful" asked over and over again lol..... this phrase X2
e|-------------------2------------------------------------3-------------------|
B|-----3----------------3--------------------5---------------4----------------|
G|--------4---------------4------------------5------------------5-------------|
D|----------5--x2--------------X2-------------------------------5-------------|
A|-------------------------------------3----------X2-----------------X2-------|
E|----------------------------------------------------------------------------|

Verse 2
        root is g                  C          root g         Repeat X 5
third time through "ya never know" he tries to jazz up boring chords second time. just
and slide b string with your pinky sliding from 8 to 7
e|---------------------------------------------------------------------------|
B|----------8------\----7-----------5----------3-----------------------------|
G|--------7------------7-----------5----------0------------------------------|
D|----5-----------5----------------------------------------------------------|
A|---------------------------3-----------------------------------------------|
E|------------------------------------------3--------------------------------|

   Pre-chorus     "wonder to myself"
e|---------------------------------------------------------------------------|
B|------------3----------------3---------------------------------------------|
G|--------2----------------2-------------------------------------------------|
D|---------------------------------------------------------------------------|
A|--1-----------------0------------------------------------------------------|
E|---------------------------------------------------------------------------|


Chorus "Are you Beautiful"  this phrase X2
e|-------------------2------------------------------------3-------------------|
B|-----3----------------3--------------------5---------------4----------------|
G|--------4---------------4------------------5------------------5-------------|
D|----------5--x2--------------X2-------------------------------5-------------|
A|-------------------------------------3----------X2-----------------X2-------|
E|----------------------------------------------------------------------------|

Bridge/breakdown Strum everything

      (Em)      Em Dim.   even further      (Am)       (C)
e|-------------------------------------------------------------3---------------|
B|----------------------------------------1-------------5---------4------------|
G|---------------------------------------------2--------5-------------5--------|
D|-----2--------1------------0-----------------2------3---------------5--------|
A|-----2---------2-----------2-------------------------------------------------|
E|-----------------------------------------------------------------------------|
Bridge Continued.... powerful strumming

         (Em)           (Am)         (C)  do a nice falsetto here

e|------------------------------------------------3---------------------------|
B|-----------------------1-------------5-------------4------------------------|
G|-------------------------2------------5---------------5---------------------|
D|----------2---------------2---------x-------------5-------------------------|
A|----------2-----------------------3-----------------------------------------|
E|----------------------------------------------------------------------------|

Chorus....

Jazz it up however you'd like and call it a song. also the pre-chorus can be 010330
of 010230 it just doubles the minor switch I believe. but it's all personal preference,
works, first one is easier.

peace love music : Alex ;)


| /  slide up
| \  slide down
| h  hammer-on
| p  pull-off
| ~  vibrato
| +  harmonic
| x  Mute note

 
 
Chris Pierce - Are You Beautiful Tab :: indexed at Ultimate Guitar.
Are You Beautiful tabs @ 911Tabs
People who played Chris Pierce - Are You Beautiful Tab also played these songs by Chris Pierce:
Are You Beautiful Tab, Are You Beautiful Tab, Are You Beautiful, Are You Beautiful, Are You Beautiful

Quick tip, so you can enjoy Are You Beautiful Tab even more:

After the registration (which takes just 10 seconds, remember?) you will be able to use your profile - your very own piece of YourChords.com.

Show us your talent, perform Are You Beautiful Tab!

Here you can post a video or audio performance. Tell me more ...
Where can we find your performance? Tell me more ...
Your comment:
Please, log in to post your performance.