Artists by letter: A B C D E F G H I J K L M N O P Q R S T U V W X Y Z 0-9

 
The Price We Pay Tab
I saw the other tab on here and thought it was a bit incomplete, so I decided to tab
I am at least 99% sure is right. There are a few chords that make this a lot easier to play. 
I put them above the part that you play along with.

Tuning: Drop C (CGCFAD)

Intro:

Chords:

C9           G3       Asus7

D|-3-|     D|---|    D|-3-|
A|-3-|     A|-3-|    A|-3-|
F|-0-|     F|-0-|    F|-0-|
C|-2-|     C|-0-|    C|-2-|
G|-3-|     G|-2-|    G|-0-|
C|---|     C|---|    C|---|

So heres the song.
D|----3-----------|         D|----3---------|
A|------3------3--|         A|------3-----3-|
F|--------0----0--|         F|--------0---0-|
C|--2----------0--| X3      C|--2---------0-|
G|3------------2--|         G|0-----------2-|
C|----------------|         C|--------------|

Repeat 2X

Verse:
Okay for this part there are two guitars.

Lead:
D|----------------------------------------------------------------|
A|------12-15~-----------12-15~---------------12-15~--------------|
F|11-12------------11-12---------12-11--11-12---------11-12-14p12-|  X2
C|----------------------------------------------------------------|
G|----------------------------------------------------------------|
C|----------------------------------------------------------------|

D|------------------------|
A|------12-15-------15-12-|
F|11-12-------11-12-------|   X8
C|------------------------|
G|------------------------|
C|------------------------|
Then repeat first part twice

Rhythem (Acoustic):
this part uses three different chords. The C9 from up top, E minor, and A minor. If you 
don't know the other two they are here. Figure out the strumming yourself.

   Em     Am
D|-0-|   |-0-|
A|-0-|   |-1-|
F|-0-|   |-2-|
C|-2-|   |-2-|
G|-2-|   |-0-|
C|-0-|   |---|


So here is what you play.

  C9         Em
D|-3-|     D|-0-|
A|-3-|     A|-0-|
F|-0-|     F|-0-|  X3
C|-2-|     C|-2-|
G|-3-|     G|-2-|
C|---|     C|-0-|

I just move my middle finger down a fret when switching between the C9 and the Em.

  Am         Em
D|-0-|     D|-0~-|
A|-1-|     A|-0~-|
F|-2-|     F|-0~-|
C|-2-|     C|-2~-|
G|-0-|     G|-2~-|
C|---|     C|----|

Repeat the two beggining chords, then the Am and Em and end the song on Em.


Tabbed by: Kevin Gruber (guitarskate37)

 
 
A Day To Remember - The Price We Pay Tab :: indexed at Ultimate Guitar.
The Price We Pay tabs @ 911Tabs

Quick tip, so you can enjoy The Price We Pay Tab even more:

You might want to transpose the song if it is too high or too low for you to sing. Just click the desired option while playing a song and all the chords will automatically be transponded into a new key.

Show us your talent, perform The Price We Pay Tab!

Here you can post a video or audio performance. Tell me more ...
Where can we find your performance? Tell me more ...
Your comment:
Please, log in to post your performance.