Artists by letter: A B C D E F G H I J K L M N O P Q R S T U V W X Y Z 0-9

 
Beach On Hawaii Tab
-------------------------------------------------------------------------------
			     Beach in Hawaii - Ziggy Marley
-------------------------------------------------------------------------------
Tabbed by: Solidforce
Email: [email protected]

Tuning:Eadgbe

Ey everyone, here the tab for ziggy marley's massive song.
GUitar 1 is clean actoustic guitar.
Solo's and extra riff's are on ukulele
NOT A TAB FOR UKULELE, just play on guitar.
dont have my uku with me now so just figure it out ur self if you have one..
it's easy;)

Verse2 is normally not on guitar but u can play it if u want.

Solo continues, improvise a bit, he prolly plays a different solo every live concert
so no worries of 100% copying a solo;)
also yeah u can play it 100% different all on the 12 on e string, 
but I like it more if u move around on your guitar..

cheers Lads, 
peace Jaws
---------------------------------------------------------------------------
[Verse]
Guitar 1:
Am G F Am

Ukulele:
e|----14----14----14----12----12----12----10----10----10----14----14----14---|
B|-12----12----12----12----12----12----12----12----12----12----12----12------|
G|---------------------------------------------------------------------------|
D|---------------------------------------------------------------------------|
A|---------------------------------------------------------------------------|
E|---------------------------------------------------------------------------|

e|----14----14----14----12----12----12----10----10----10----9-----9h10h9-----|
B|-12----12----12----12----12----12----12----12----12----12----12--------10--|
G|---------------------------------------------------------------------------|
D|---------------------------------------------------------------------------|
A|---------------------------------------------------------------------------|
E|---------------------------------------------------------------------------|

[Verse2]
e|---------------------------------------------------------------------------|
B|---------------------------------------------------------------------------|
G|--18-16-14-16---18-16-14---------------------------------------------------|
D|-------------------------16------------------------------------------------|
A|---------------------------------------------------------------------------|
E|---------------------------------------------------------------------------|

[Solo]
e|----------------------12-14---------------------12b(14)-12----12h14h12---12|
B|-14-14-14-15~---12-14------12-14b--14h15--17~--------------14----------14--|
G|---------------------------------------------------------------------------|
D|---------------------------------------------------------------------------|
A|---------------------------------------------------------------------------|
E|---------------------------------------------------------------------------|

ect ect, go on, nothing special, just roll with the tune, improvise and stuff ;)
e|-17b-17-17b-17b------------------------------------------------------------|
B|---------------------------------------------------------------------------|
G|---------------------------------------------------------------------------|
D|---------------------------------------------------------------------------|
A|---------------------------------------------------------------------------|
E|---------------------------------------------------------------------------|


[Verse]
on the beach in Hawaii

I wish you were here with me, 
walking on the beach in Hawaii
playing on the golden sand,
 
looking at the ocean now I understand
love is like the open sea, 
and I wish you were here with me

[Chorus]
on the beach in Hawaii

Since you've been gone away, 
I think about you everyday
don't you know I miss you much

and you know I need your touch
I'm on a rocky cliff, 
oh I wish you were hear with me

[Chorus]
on the beach in Hawaii

[Verse2]
A little pakalolo, and I say mahalo
ujjayi breathing, to get a real feeling
yogi gonna let you know

[Chorus]
that I wish you were here with me
on the beach in Hawaii
in Hawaii

[Solo]

[Chorus]
that I wish you were here with me
on the beach in Hawaii
in Hawaii

------------------------------------------------------------
Leave a comment if u can please;)

| /  slide up
|   slide down
| h  hammer-on
| p  pull-off
| ~  vibrato
| +  harmonic
| x  Mute note
===============================================================================


 
 
Ziggy Marley - Beach On Hawaii Tab :: indexed at Ultimate Guitar.
Beach On Hawaii tabs @ 911Tabs

About the artist behind Beach On Hawaii Tab:

David Nesta "Ziggy" Marley (born October 17, 1968, Trenchtown) is a Grammy-winning Jamaican musician. He is the oldest son of Rita and Bob Marley1, the legendary roots reggae singer. His mother Rita called and baptised him David, but his father Bob nicknamed him "ziggy" in reference to a marijuana cigarette.[1][2] An alternative explanation links the nickname to the David Bowie persona "Ziggy Stardust" and his eponymous 1972 album.[3]

Indexed at Wikipedia.

Show us your talent, perform Beach On Hawaii Tab!

Here you can post a video or audio performance. Tell me more ...
Where can we find your performance? Tell me more ...
Your comment:
Please, log in to post your performance.