Artists by letter: A B C D E F G H I J K L M N O P Q R S T U V W X Y Z 0-9

Fool For Your Loving Tab (ver 2) - Whitesnake


 
Fool For Your Loving Tab
Ok constructive crits welcome. The F/Gm in the bridge is done twice. The Gm in the chorus
is played at the 10th fret. This is from the Ready And Willing album so it may differ
from the later version. The intro is the first 4 bars of the main riff up to the F that 
played during the verses. Enjoy.

Fool For Your Loving
Whitesnake

Intro
E||---------------------------|-------------------------|---------------------------|
B||---------------------------|-------------------------|---------------------------|
G||-------------3---5--3------|--3---3---5--------------|-------3---5--3------3---3-|
D||--3--/5------3---5--3------|--3---3---5-------3--/5--|-------3---5--3------3---3-|
A||--3--/5--------------------|------------------3--/5--|---------------------------|
E||---------------------------|-------------------------|---------------------------|

--------------------------|-------------------------|-----------------------------|
--------------------------|-------------------------|-----------------------------|
-------------------3---5--|--3------3---3---5-------|------------3----5--3--------|
--3-----3--/5------3---5--|--3------3---3---5-------|--3--/5-----3----5--3--------|
--3-----3--/5-------------|-------------------------|--3--/5----------------------|
--------------------------|-------------------------|-----------------------------|

------------------------||
------------------------||
-5--3-------------------||
-------5--3~------------||
------------------------||
------------------------||
I was born under a bad sign,
Left out in the cold
I'm a lonely man who knows
Just what it means to lose control

But, I took all the heartache
And turned it to shame,
Now I'm moving, moving on,
And I ain't taking the blame
Bridge
   Cm7                        Dm7
       Don't come running to me,
                            F/Gm
       I know I've done all I can
         Cm7                      Dm7
       A hard loving woman like you
                               F/Gm
       Just makes a hard loving man
       Gm
         So I can say it to you, babe
 Chorus
         Eb             F         Gm
         I'll be a fool for your loving no more,
            Eb            F        Gm
         A fool for your loving no more
             Eb           F        Dm             Gm
         I'm so tired of trying, I always end up crying,
         Cm7                  D
         Fool for your loving no more
                   stop                     Gm
         I'll be a fool for your loving no more
riff 2

---------------------------------------------|
---------------------------------------------|
---------------------------------------------|
---5---12-10--8-7--3-5---5---12-10--8-7--3-5-|
---5---12-10--8-7--3-5---5---12-10--8-7--3-5-|
---3---10--8--6-5--1-3---3---10--8--6-5--1-3-|  ) x2

I'm tired of hiding my feelings,
You left me lonely too long
I gave my heart, and you tore it apart,
Oh, baby, you done me wrong
Bridge
   Cm7                        Dm7
       Don't come running to me,
                            F/Gm
       I know I've done all I can
         Cm7                      Dm7
       A hard loving woman like you
                               F/Gm
       Just makes a hard loving man
       Gm
         So I can say it to you, babe
 Chorus
         Eb             F         Gm
         I'll be a fool for your loving no more,
            Eb            F        Gm
         A fool for your loving no more
             Eb           F        Dm             Gm
         I'm so tired of trying, I always end up crying,
         Cm7                  D
         Fool for your loving no more
                   stop                     Gm
         I'll be a fool for your loving no more

During solo Main Riff continues

|---------------------------|-------------------------|---------------------------|
|---------------------------|-------------------------|---------------------------|
|------------------3--------|--5b--3--5------3--------|--32--------3--5b---------|
|---------------5-----5-----|-------------------5-----|-------3/5-----------------|
|---------------------------|-------------------------|---------------------------|
|---------------------------|-------------------------|---------------------------|

|----3--6--5--3-------------|-------------------------|---------------------------|
|-3--------------3--6--6----|---3---------------------|---------------------------|
|---------------------------|------5--5-----3/10----|---------------------------|
|---------------------------|-------------------------|---------------------------|
|---------------------------|-------------------------|-------1--------3---5-3----|
|---------------------------|-------------------------|-3-1-3----3-1-3------------|

|---------------------------|-------------------------|-3-6-3---6b-6-6-----6------|
|---------------------------|------------------3-6-3-6|----------------6/8--------|
|-----------3b--------------|------3---3-5-3-5--------|---------------------------|
|---3-5-3-5-------5-5-3-----|5-3-5---5----------------|---------------------------|
|-5-------------------------|-------------------------|---------------------------|
|---------------------------|-------------------------|---------------------------|

|--------------6b------15---|-------------------------|-------------------15------|
|---8---8---8----------18b--|-18br-15-----------------|----------------15----17-15|
|---------------------------|---------17br-15----17-15|---------15-17b------------|
|---------------------------|-----------------17------|17-15-17-------------------|
|---------------------------|-------------------------|---------------------------|
|---------------------------|-------------------------|---------------------------|

|18b-18-15--------------------|-------------------------|-18b-18b-17-15-------------|
|----------18-15------------15|-------------------------|---------------18----------|
|----------------17br-15-17---|-15----------------157--|---------------------------|
|-----------------------------|----17-15-17-17-17-------|---------------------------|
|-----------------------------|-------------------------|---------------------------|
|-----------------------------|-------------------------|---------------------------|


|---------------------|18----------------------|---------------------------|
|-18b--18b--18b--18b--|---18-------------------|---------------------------|
|---------------------|------17br-15----17-15--|---------------------------|
|---------------------|--------------17--------|---17-----------17---------|
|---------------------|------------------------|---------------------------|
|---------------------|------------------------|---------------------------|

         Gm
         So I can say it to you, babe
         Eb             F         Gm
         I'll be a fool for your loving no more,
            Eb            F        Gm
         A fool for your loving no more
             Eb           F        Dm             Gm
         I'm so tired of trying, I always end up crying,
         Cm7                  D
         Fool for your loving no more
                   stop                     Gm
         I'll be a fool for your loving no more


Riff 2 repeat till end

---------------------------------------------|
---------------------------------------------|
---------------------------------------------|
---5---12-10--8-7--3-5---5---12-10--8-7--3-5-|
---5---12-10--8-7--3-5---5---12-10--8-7--3-5-|
---3---10--8--6-5--1-3---3---10--8--6-5--1-3-|

 
 
Whitesnake - Fool For Your Loving Tab :: indexed at Ultimate Guitar.
Fool For Your Loving tabs @ 911Tabs

About the artist behind Fool For Your Loving Tab:

Whitesnake, also known as "Serpens Albus" is an album released in 1987 by the British rock band of the same name (Whitesnake). The album was a major crossover hit and one of the top-selling albums in the glam metal genre, eventually selling over eight million copies (and thus going eight times platinum). It was the eighth studio release from the band. The album peaked at #2 on the Billboard 200 chart. Its success even boosted its predecessor, Slide It In, from gold to double platinum status.

In Europe the album was called 1987 which featured a different running order and two extra tracks, "Looking for Love" and "You're Gonna Break My Heart Again"; and in Japan the album was titled Serpens Albus which, in Latin, means "Whitesnake"). The two extra European tracks would be released in America in the 90s on Whitesnake's Greatest Hits.

After the album was recorded, lead singer David Coverdale fired the band members who had played on the recordings: John Sykes (guitar), who went on to found Blue Murder; Neil Murray (bass); and Aynsley Dunbar (drums). Adrian Vandenberg, who played on the solo to "Here I Go Again," joined the band on a full-time basis after the other members were gone.

The album produced three major crossover hit singles: the Led Zeppelin-influenced "Still of the Night", "Here I Go Again", the band's only #1 single in the U.S. and the power ballad "Is This Love", which reached #2 on the U.S. singles chart. They also had hits in Britain with the aforementioned three singles, as well as "Give Me All Your Love", which reached #18.

"Here I Go Again" originally appeared on the Saints & Sinners album. It was rerecorded for the new release here. An alternate radio version of this album's recording did not appear on the album but was later included as a bonus track on Whitesnake's Greatest Hits.

All videos from the album earned substantial airplay on MTV in part due to appearances by Tawny Kitaen, then the wife of Whitesnake lead singer David Coverdale.

The album's success paved the way for other Zeppelin-derived acts, such as Kingdom Come, to find commercial success in the U.S.

A new reissue of the album featuring a DVD with videoclips and more material of the band in that year is going to be released as a 20th anniversary edition.

Indexed at Wikipedia.

Show us your talent, perform Fool For Your Loving Tab!

Here you can post a video or audio performance. Tell me more ...
Where can we find your performance? Tell me more ...
Your comment:
Please, log in to post your performance.