Artists by letter: A B C D E F G H I J K L M N O P Q R S T U V W X Y Z 0-9

 

Underneath The Waves Tab
THE TWILIGHT SINGERS

UNDERNEATH THE WAVES

tabbed by dan ([email protected])

standard tuning

|-------------------------------------------------------------|
|-------------------------------------------------------------|
|-------------------------------------------------------------|
|---5--5--5--5--5--5--5--5--5--5--/9--9--9--9--9--9--9--9--9--|
|---5--5--5--5--5--5--5--5--5--5--/9--9--9--9--9--9--9--9--9--|
|---3--3--3--3--3--3--3--3--3--3--/7--7--7--7--7--7--7--7--7--|
intro/verse    NOTE: the verse is actually only G on guitar, play the B if you're without a bass.

|----------/------------------------------------------------------|
|-----------/-----------------------------------------------------|
|----------/------------------------------------------------------|
|---------RANDOM SLIDING------------------------------------------|
|-------/-----------------------/10--109--------/12--1210vvvvv---|
|-------/---------------------------------------------------------|
intro guitar 2 delay  and e-bow

|-----------------------------------------------|
|-----------------------------------------------|
|---5--5--5--5--5--5--/9--9--9--9--7--7--7--7---|
|---5--5--5--5--5--5--/9--9--9--9--7--7--7--7---|
|---3--3--3--3--3--3--/7--7--7--7--5--5--5--5---|
|-----------------------------------------------|
chorus

back to verse, the repeat chorus

|------------------------------------------------|
|------------------------------------------------|
|----5-----4---------------5-----4---------5-----|
|----5-----4-----5---------5-----4----5----5-----|
|----3-----2-----5---------3-----2----5----3-----|
|----------------3----2---------------3----------|
bridge    (piano tabbed for guitar)

|----------------------------------------------------|
|---13vvvvvvvvvvvvvvvvvvvv12vvvvvvvvvvvvvvvvvvvvvv---|
|----------------------------------------------------|
|----------------------------------------------------|
|----------------------------------------------------|
|----------------------------------------------------|
guitar 2 bridge   with e-bow

all other parts are repeated a few times after that.

|------------------------------------------------------|
|------------------------------------------------------|
|------------------------------------------------------|
|--5-5-5-5-5-5-5-5-5-5-5--/9-9-9-9-9-9-9-9-9-9-9-9-9---|
|--5-5-5-5-5-5-5-5-5-5-5--/9-9-9-9-9-9-9-9-9-9-9-9-9---|
|--3-3-3-3-3-3-3-3-3-3-3--/7-7-7-7-7-7-7-7-7-7-7-7-7---|
outro     this twice

|---------------------------------------------------|
|--1-1-1--1-1-1-1-1-1-1-1---------7-8--------8--7---|
|--0-0-0--0-0-0-0-0-0-0-0--/9--9--9-9--7--7--7--7---|
|--2-2-2--2-2-2-2-2-2-2-2--/9--9--9-9--7--7--7--7---|
|--3-3-3--3-3-3-3-3-3-3-3--/7--7-------5--5---------|
|---------------------------------------------------|
outro continued    x3  3rd slow down tempo    end on C

guitar 2 just uses feedback, delay and e-bow to create those sounds. impossible to tab.

that's pretty much it.
any comments, suggestions etc, email me.

 
 
The Twilight Singers - Underneath The Waves Tab :: indexed at Ultimate Guitar.
Underneath The Waves tabs @ 911Tabs
People who played The Twilight Singers - Underneath The Waves Tab also played these songs by The Twilight Singers:
King Only Tab, Bonnie Brae Tab, The Twilite Kid Tab, Follow You Down Chords, Bonnie Brae Tab, Underneath The Waves Chords

Quick tip, so you can enjoy Underneath The Waves Tab even more:

If you don't really know how to deal with "Absus4" chord and his equally confusing brothers, just put the mouse cursor over them and you will be shown a helpful chord diagram.

Show us your talent, perform Underneath The Waves Tab!

Here you can post a video or audio performance. Tell me more ...
Where can we find your performance? Tell me more ...
Your comment:
Please, log in to post your performance.