Artists by letter: A B C D E F G H I J K L M N O P Q R S T U V W X Y Z 0-9

 
Bonnie Brae Tab
THE TWILIGHT SINGERS

BONNIE BRAE

tabbad by dan ([email protected])

standard tuning

this is exactly how it's played, i saw it live.
|---------------------------------------------------------------------|
|---------------------------------------------------------------------|
|---------------------------------------------------------------------|
|---------------------------------------------------------------------|
|----5-5-5-5-5-5-5---5-5-5-5-5-5-5---5-5-5-5-5-5-5-5---5-5-5-5-5-5-5--|
|--3---------------2---------------0-----------------2----------------|
intro/verse

|----------------------------------------------------------------------|
|----------------------------------------------------------------------|
|----------------------------------------------------------------------|
|--5-5-5-5-5-5-5-5--4-4-4-4-4-4-4-4--2-2-2-2-2-2-2-2--4-4-4-4-4-4-4-4--|
|--5-5-5-5-5-5-5-5--4-4-4-4-4-4-4-4--2-2-2-2-2-2-2-2--4-4-4-4-4-4-4-4--|
|--3-3-3-3-3-3-3-3--2-2-2-2-2-2-2-2--0-0-0-0-0-0-0-0--2-2-2-2-2-2-2-2--|
chorus

|----------------------------|
|----------------------------|
|--6/7-7-7--6/7-7-7--6/7-7/9-|
|--x/x-x-x--x/x-x-x--x/x-x/x-|
|--4/5-5-5--4/5-5-5--4/5-5/7-|
|----------------------------|
solo (2 guitars)           x4

|------------------------------------------------------------------|
|------------------------------------------------------------------|
|-11/12-12-12-11/12-12-12-11/12-12/14-14-14/16-16/18-18-18/19-19---|
|--x/-x--x--x--x/-x--x--x--x/-x--x/-x--x--x/-x--x/-x--x--x/-x--x---|
|--9/10-10-10--9/10-10-10--9/10-10/12-12-12/14-14/16-16-16/17-17---|
|------------------------------------------------------------------|
solo continued

|-------------------------------------------------------------------|
|-------------------------------------------------------------------|
|--19-19-19-19-19-19-19/21-21-21-2119-19-19-19-19-19-19-19vvvvvv---|
|---x--x--x--x--x--x--x/-x--x--x--x-x--x--x--x--x--x--x--x---------|
|--17-17-17-17-17-17-17/19-19-19-1917-17-17-17-17-17-17-17vvvvvv---|
|-------------------------------------------------------------------|
solo continued

|--------------------------------|
|--------------------------------|
|---7-7-7-7-7-7-7-7-7-7-7-7-7-7--|
|---7-7-7-7-7-7-7-7-7-7-7-7-7-7--|
|---5-5-5-5-5-5-5-5-5-5-5-5-5-5--|
|--------------------------------|
bridge       play a lot

back to verse part until end.

that's it.

 
 
The Twilight Singers - Bonnie Brae Tab :: indexed at Ultimate Guitar.
Bonnie Brae tabs @ 911Tabs
People who played The Twilight Singers - Bonnie Brae Tab also played these songs by The Twilight Singers:
King Only Tab, Bonnie Brae Tab, The Twilite Kid Tab, Follow You Down Chords, Underneath The Waves Chords, Im Ready Tab

Quick tip, so you can enjoy Bonnie Brae Tab even more:

If you spend just 10 seconds to register, you will be able to comment on all the chords and tabs and rate them. You will as well be able to comment on videos of your fellow guitarists and give them ratings from 1 to 5 ... And - of course - you can share your own videos with them and see what they think of you. :)
Click here to join us!

Show us your talent, perform Bonnie Brae Tab!

Here you can post a video or audio performance. Tell me more ...
Where can we find your performance? Tell me more ...
Your comment:
Please, log in to post your performance.