Artists by letter: A B C D E F G H I J K L M N O P Q R S T U V W X Y Z 0-9

 
Mutter Tab
-----------------------------------------------------------------------
                            Rammstein - Mutter
-----------------------------------------------------------------------
Transcribed by Ben Godby
[email protected]

Guitar 1 - Standard Tuning - EADGBe
Guitar 2 - Drop D Tuning   - DADGBe

Legend

/  = slide
 = optional note(s)

Verse (Guitar 1)
   Em					     B
e|-----------------7-------------------------7-----------------7-----|
B|-------------8-------8-------------------7---7-------------7---7---|
G|---------9---------------9-------------8-------8---------8-------8-|
D|-----9-----------------------9-------9-----------------7-----------|
A|-7---------------------------------9-----------------7-------------|
E|---------------------------------7-----------------9---------------|

Chorus (Guitar 1)
e|-----------------------------------------------------------|
B|-----------------------------------------------------------|
G|-9-----------11-12-14/16-----14-16-14-11-------|
D|-----------------------------------------------------------|
A|-----------------------------------------------------------|
E|-----------------------------------------------------------|

Chorus (Guitar 2)
e|---------------------------------|
B|---------------------------------|
G|---------------------------------|
D|-2-------5-/7----0---------------|
A|-2-------5-/7----0---------------|
D|-2-------5-/7----0---------------|

Bridge
e|---------------------------------|
B|---------------------------------|
G|-9-------7-------5-------7-------|
D|-9-------7-------5-------7-------|
A|-7-------5-------3-------5-------|
D|---------------------------------|

After the bridge and synthesizer break, there is a key change (from Em to F#m),
and all notes/chords are moved up two steps for the last chorus.


Chorus (Guitar 1)
e|-----------------------------------------------------------|
B|-----------------------------------------------------------|
G|-11----------13-14-16/18-----16-18-16-13-------|
D|-----------------------------------------------------------|
A|-----------------------------------------------------------|
E|-----------------------------------------------------------|

Chorus (Guitar 2)
e|---------------------------------|
B|---------------------------------|
G|---------------------------------|
D|-4-------7-/9----2---------------|
A|-4-------7-/9----2---------------|
D|-4-------7-/9----2---------------|

2nd Bridge
Guitar 1
e|-----------------|
B|-----------------|
G|-7-------9-------|
D|-5-------7---4---|
A|-5-------7---4---|
E|-------------2---|

 
 
Rammstein - Mutter Tab :: indexed at Ultimate Guitar.
Mutter tabs @ 911Tabs

About the artist behind Mutter Tab:

Rammstein (pronounced [ˈʀamʃtaɪ̯n]) is a German Industrial metal band, founded in Germany, and consisting of Till Lindemann (lead vocals), Richard Z. Kruspe (lead guitar and backing vocals), Paul H. Landers (rhythm guitar, backing vocals), Oliver "Ollie" Riedel (bass guitar), Christoph "Doom" Schneider (drums and percussion) and Christian "Flake" Lorenz (keyboards). The band is widely accepted as part of the NDH-scene, alongside bands such as Oomph! and Die Krupps. Their sound has been dubbed as Tanz-Metall (lit. "Dance Metal").[1][2][3] Their songs are performed almost exclusively in German. Formed in 1994, they have sold over 14 million records worldwide.[4] Rammstein's entire catalogue is published by Universal Music Group.

Although the majority of their songs are written in German, Rammstein has had massive success across the world. It has been confirmed that the band has reunited from their vacation and has begun writing their sixth studio album, which will be released sometime in the fourth quarter of 2008.

Indexed at Wikipedia.

Show us your talent, perform Mutter Tab!

Here you can post a video or audio performance. Tell me more ...
Where can we find your performance? Tell me more ...
Your comment:
Please, log in to post your performance.