Artists by letter: A B C D E F G H I J K L M N O P Q R S T U V W X Y Z 0-9

 
C-lebrity Tab
Intro

     Q     S  S  S S H           Q     S  S  S S E  E  Q     
E||---------------------------|-----------------------------|
B||---------------------------|-----------------------------|
G||---------------------------|-----------------------------|
D||--2-----2--2--0-2----------|--2-----2--2--0-2----2-------|
A||--2h----3p-2p-0-2----------|--2h----3p-2p-0-2----2-------|
E||--0-----0--0----0----------|--0-----0--0----0----0-------|


  Q     S  S S S S S T S X E  X E     Q     S  S  S S E  E  Q     
-----------------------------------|-----------------------------|
-------------------9---9---9-------|-----------------------------|
-------------------9---9---9-------|-----------------------------|
--2-----2--2-0-2---9---9---9-------|--2-----2--2--0-2----2-------|
--2h----3p-2-0-2---7---7---7-------|--2h----3p-2p-0-2----2-------|
--0-----0--0---0---0---0---0-------|--0-----0--0----0----0-------|


  Q     S  S  S S H           Q     S  S  S S E  E    E  E   
---------------------------|------------------------3g4-----|
---------------------------|-----------------------------5--|
---------------------------|--------------------------------|
--2-----2--2--0-2----------|--2-----2--2--0-2----2----------|
--2h----3p-2p-0-2----------|--2h----3p-2p-0-2----2----------|
--0-----0--0----0----------|--0-----0--0----0----0----------|


  Q     S  S  S S H           Q     S  S  S S E  Q.        W                 
---------------------------|----------------------------|-------------------|
---------------------------|----------------------------|-------------------|
---------------------------|---------------------7------|--L----------------|
--2-----2--2--0-2----------|--2-----2--2--0-2----7------|--L----------------|
--2h----3p-2p-0-2----------|--2h----3p-2p-0-2----5------|--L----------------|
--0-----0--0----0----------|--0-----0--0----0-----------|-------------------|


Verse
 
  Q     S  S  S S H           Q     S  S  S S E  E  Q     
---------------------------|-----------------------------|
---------------------------|-----------------------------|
---------------------------|-----------------------------|
--2-----2--2--0-2----------|--2-----2--2--0-2----2-------|
--2h----3p-2p-0-2----------|--2h----3p-2p-0-2----2-------|
--0-----0--0----0----------|--0-----0--0----0----0-------|


  Q     S  S  S S H           Q     S  S  S S E  E  Q     
---------------------------|-----------------------------|
---------------------------|-----------------------------|
---------------------------|-----------------------------|
--2-----2--2--0-2----------|--2-----2--2--0-2----2-------|
--2h----3p-2p-0-2----------|--2h----3p-2p-0-2----2-------|
--0-----0--0----0----------|--0-----0--0----0----0-------|


  Q     S  S  S S H           Q     S  S  S S E  E  Q     
---------------------------|-----------------------------|
---------------------------|-----------------------------|
---------------------------|-----------------------------|
--2-----2--2--0-2----------|--2-----2--2--0-2----2-------|
--2h----3p-2p-0-2----------|--2h----3p-2p-0-2----2-------|
--0-----0--0----0----------|--0-----0--0----0----0-------|


  Q      S  S  S  S H           Q      S  S  S  S E  E  Q     
-----------------------------|-------------------------------|
-----------------------------|-------------------------------|
--9------9--9--7--9----------|--9------9--9--7--9----9-------|
--9h----10p-9p-7h-9----------|--9h----10p-9p-7h-9----9-------|
--7------7--7--7--7----------|--7------7--7--7--7----7-------|
-----------------------------|-------------------------------|


  Q      S  S  S  S H           Q      S  S  S  S E  E  Q     
-----------------------------|-------------------------------|
-----------------------------|-------------------------------|
--9------9--9--7--9----------|--9------9--9--7--9----9-------|
--9h----10p-9p-7h-9----------|--9h----10p-9p-7h-9----9-------|
--7------7--7--7--7----------|--7------7--7--7--7----7-------|
-----------------------------|-------------------------------|


Bridge

  E.  S S  E  Q    E  E.     T T E  S S  E  Q    E  E.   
--------------------------|-----------------------------|
--------------------------|-----------------------------|
--2---2-------2----0--3---|----2-L--2-------2----0--3---|
--2---2-------2----0--3---|----2-L--2-------2----0--3---|
--0---0-3p-0--0-----------|----0-L--0-3p-0--0-----------|
--------------------------|-----------------------------|


  T T E  S S  E  Q    E  E.     T T E  S S  E  Q    E  E.   
-----------------------------|-----------------------------|
-----------------------------|-----------------------------|
----2-L--2-------2----0--3---|----2-L--2-------2----0--3---|
----2-L--2-------2----0--3---|----2-L--2-------2----0--3---|
----0-L--0-3p-0--0-----------|----0-L--0-3p-0--0-----------|
-----------------------------|-----------------------------|


  T T E  S S  E  Q    Q    S    W                                      
-----------------------------|-------------------|-------------------||
-----------------------------|-------------------|-------------------||
----2-L--2-------2-----------|-------------------|-------------------||
----2-L--2-------2----5----L-|--L----------------|-------------------||
----0-L--0-3p-0--0----5----L-|--L----------------|-------------------||
----------------------3----L-|--L----------------|-------------------||

Tablature Legend
----------------
g - grace note
h - hammer on
p - pull off

Duration Legend
---------------
W - whole
H - half
Q - quarter
E - 8th
S - 16th
T - 32nd
X - 64th
. - note dotted


 
 
Queen And Paul Rogers - C-lebrity Tab :: indexed at Ultimate Guitar.
C-lebrity tabs @ 911Tabs
People who played Queen And Paul Rogers - C-lebrity Tab also played these songs by Queen And Paul Rogers:
Voodoo Chords, Voodoo

Quick tip, so you can enjoy C-lebrity Tab even more:

Try out the AutoScroller option ... It scrolls the page for you, so you can totally focus on nailing that solo. You can choose among different speeds using your mouse or your keyboard (keys 0, 1, 2 and 3).

Show us your talent, perform C-lebrity Tab!

Here you can post a video or audio performance. Tell me more ...
Where can we find your performance? Tell me more ...
Your comment:
Please, log in to post your performance.