Artists by letter: A B C D E F G H I J K L M N O P Q R S T U V W X Y Z 0-9

How To Make A Love Song Tab (ver 2) - Parokya Ni Edgar


 
How To Make A Love Song Tab
===============================================================================
                  How To Make Love Song - Parokya ni Edgar
--------------------------------------------------------------------------------
Tabbed by: stephanie_7368
Email:     [email protected]

legends:
  x -> mute the string    
  h -> hammer-on
  s -> slide
  v -> vibrato

NOTES: -Measure 8:
          Naka-sustain yung 3 kaya kinuha sa mababang fret. Yung 'open' sa
          measure 9 ang magbibigay ng oras para magawa yung next chord.
       -Pakinggan na lang yung song para sa tamang strumming ^^


VERSE I
       D                  Bm
  The first part of this song I guess should

     1                         A
     Em            A       Asus2
     1 * * * 2 * * * 3 * * * 4 * * *
  e|-0-------------0-------0---0-----|
  B|-0-------------2-------0---2-----| (The spaces between chords are strummed.
  G|-0-------------2-------2---2-----|  These measures simply show chord
  D|-2-------------2-------2---2-----|  transitions)
  A|-2-------------0-------0---0-----|
  E|-0-------------------------------|
  start wih something sweet

        D               Bm               (1)
  'coz love songs often do and you know me I'm such a geek


REFRAIN I
     2                         D       3                         D
     G             D       Dsus2       G             D       xx0233
     1 * * * 2 * * * 3 * * * 4 * * *   1 * * * 2 * * * 3 * * * 4 * * *
  e|-3-------------2-------0---2-----|-3-------------2------2h3--2-----|
  B|-3-------------3-------3---3-----|-3-------------3-------3---3-----|
  G|-0-------------2-------2---2-----|-0-------------2-------2---2-----|
  D|-0-------------0-------0---0-----|-0-------------0-------0---0-----|
  A|-2-------------------------------|-2-------------------------------|
  E|-3-------------------------------|-3-------------------------------|
  For songs that I could sing to you And I'm hoping this could be one

         (2)                                  Em               A
  And I hope that you would like me...este...like it when i'm done


VERSE II (same as VERSE I)
      D              Bm            Em                A   Asus2 A
  The second part is easy to mess up with somethng cheesy
        D                Bm                 Em            A     Asus2 A
  So I better choose my words 'coz I don't want it to be mushy...


REFRAIN II
        (2)                                     (3)
  'coz that's the thing with lovesongs and that is the tricky part
       (3)
  It's hard not to sound corny when you're

     4                                 5
     Em            D               xx0233    D
     1 * * * 2 * * * 3 * * * 4 * * *   1 * * * 2 * * *
  e|-0-------------2--------------2h3|-------2---------|
  B|-0-------------3---------------3-|-------3---------|
  G|-0-------------2---------------2-|-------2---------|
  D|-2-------------0---------------0-|-------0---------|
  A|-2-------------------------------|-----------------|
  E|-0-------------------------------|-----------------|
    Singing from the heart                           and


CHORUS
   Bm
  when the chorus comes I must come

     6
     A                 Asus2       A
     1 * * * 2 * * * 3 * * * 4 * * *
  e|-0-----------------0-----------0-|
  B|-2-----------------0-----------2-|
  G|-2-----------------2-----------2-|
  D|-2-----------------2-----------2-|
  A|-0-----------------0-----------0-|
  E|---------------------------------|
    up with something clever

      Bm                                (6)
  For you it's just a lovesong but for me It's now or never
        Em               A              Bm             D
  and though I tried my best to make it beautiful and true
  (3)                           (4)             (5)
  I could never make a song as beautiful as you


ADLIB
  D Bm Em A
  D Bm (1)
  (3) (3)
  (2) Em

     7             Dsus2
     D       xx0233        D
     1 * * * 2 * * * 3 * * * 4 * * *
  e|-2------2h3----2-------0---------|
  B|-3-------3-----3-------2---------|
  G|-2-------2-----2-------3---------|
  D|-0-------0-----0-------0---------|
  A|---------------------------------|
  E|---------------------------------|


ADLIB (lead guitar)

     8                                 9     open
                                 xxxx32          xx7655(5 is barred)
     1 * * * 2 * * * 3 * * * 4 * * *   1 * * * 2 * * * 3 * * * 4 * * *
  e|-----------7---5---------0-------|-3---2-0---------------5---------|
  B|-------------------7---------3---|---------------5-------5---------|
  G|-7-----7-------------------------|-----------7-----------6---------|
  D|-----9---------------------------|-------------------7-------------|
  A|---------------------------------|---------------------------------|
  E|---------------------------------|---------------------------------|
                                 
                                  `--this note is sustained

     10                                11
     1 * * * 2 * * * 3 * * * 4 * * *   1 * *  *  2 * * * 3  *  *  *  4 * * *
  e|-------------------------9---10--|-15--14-12-------12--------------------|
  B|-----------8---9s10------10x-----|-------------15-------11s12-10v--------|
  G|-7-----7---9---10s11-----7-x-----|---------------------------------------|
  D|-----9---------------------------|---------------------------------------|
  A|---------------------------------|---------------------------------------|
  E|---------------------------------|---------------------------------------|

     12
  e|-12--14-15----------------------------|
  B|-----------12-14-15----------------15-|
  G|--------------------11-12-14----14----| (Parang finger exercise ^^)
  D|-----------------------------12-------|
  A|--------------------------------------|
  E|--------------------------------------|

     13 (same as 12)
  e|-12-14-15----------------------------|
  B|----------12-14-15----------------15-|
  G|-------------------11-12-14----14----|
  D|----------------------------12-------|
  A|-------------------------------------|
  E|-------------------------------------|

     14 (same as 12 pa rin)
  e|-12-14-15----------------------------|
  B|----------12-14-15----------------15-|
  G|-------------------11-12-14----14----|
  D|----------------------------12-------|
  A|-------------------------------------|
  E|-------------------------------------|

     15
                xxxx1517
  e|-15--14-12------17------17------17-----17-|
  B|------------15------15-------15-----15----|
  G|------------------------------------------|
  D|------------------------------------------|
  A|------------------------------------------|
  E|------------------------------------------|


CHORUS
       Bm                             (6)
  and when the chorus comes again I must say something clever
           Bm                                  (6)
  'coz for you it's just a love song but for me it's now or never
        Em               A              Bm             D xx0233 D
  and though I tried my best to make it beautiful and true
  G              D              Em           D
  I could never make a song as beautiful as you
           G               D        Em             D
  I could never make a lovesong as beautiful as you

===============================================================================

 
 
Parokya Ni Edgar - How To Make A Love Song Tab :: indexed at Ultimate Guitar.
How To Make A Love Song tabs @ 911Tabs

Quick tip, so you can enjoy How To Make A Love Song Tab even more:

You might want to transpose the song if it is too high or too low for you to sing. Just click the desired option while playing a song and all the chords will automatically be transponded into a new key.

Show us your talent, perform How To Make A Love Song Tab!

Here you can post a video or audio performance. Tell me more ...
Where can we find your performance? Tell me more ...
Your comment:
Please, log in to post your performance.