Artists by letter: A B C D E F G H I J K L M N O P Q R S T U V W X Y Z 0-9

 
Stuck On You Tab
Tuning: Drop D both guitars

Intro/Chorus:

Guitar 1: Idle

Guitar 2:
e|-4-----4-----7---|-12------11-----------|
B|---7-----7-------|----9-------9----9----|
G|-----6-----6---6-|------11------11---11-|
D|-----------------|----------------------| (x3)
A|-----------------|----------------------|
D|-----------------|----------------------|
          x3

Guitar 1: will enter at 0:13
e|-----------------------------------------|
B|-----------------------------------------|
G|-----------------------------------------|
D|-4-----7-----1-----6-----9---------------| (x2)
A|-4(x8)--7(x8)--1(x8)--6(x4)--9(x4)------------|
D|-4-----7-----1-----6-----9---------------|


Verse 1
Guitar 1
e|-----------------------------------------|
B|-----------------------------------------|
G|-----------------------------------------|
D|-4-----7-----1-----6-----9---------------| (x2)
A|-4(x8)--7(x8)--1(x8)--6(x4)--9(x4)------------|
D|-4-----7-----1-----6-----9---------------|
      F#           A         Ebm      G#m        B

Chorus
Guitar 1:
e|-----------------------------------------|
B|-----------------------------------------|
G|-----------------------------------------|
D|-4-----7-----1-----6-----9---------------| (x1)
A|-4(x8)--7(x8)--1(x8)--6(x4)--9(x4)------------|
D|-4-----7-----1-----6-----9---------------|

Guitar 2:
e|-4-----4-----7---|-12------11-----------|
B|---7-----7-------|----9-------9----9----|
G|-----6-----6---6-|------11------11---11-|
D|-----------------|----------------------| (x3)
A|-----------------|----------------------|
D|-----------------|----------------------|
          x3


Verse 2:
Guitar 1
e|-----------------------------------------|
B|-----------------------------------------|
G|-----------------------------------------|
D|-4-----7-----1-----6-----9---------------| (x2)
A|-4(x8)--7(x8)--1(x8)--6(x4)--9(x4)------------|
D|-4-----7-----1-----6-----9---------------|
      F#           A         Ebm      G#m        B



Chorus (x3)


Verse 3:
Guitar 1
e|-----------------------------------------|
B|-----------------------------------------|
G|-----------------------------------------|
D|-4-----7-----1-----6-----9---------------| (x2)
A|-4(x8)--7(x8)--1(x8)--6(x4)--9(x4)------------|
D|-4-----7-----1-----6-----9---------------|
      F#           A         Ebm      G#m        B


Chorus (x3)


Bridge:
Guitar 1
e|-----------------------------------------|
B|-----------------------------------------|
G|-----------------------------------------|
D|-4-----7-----1-----6-----9---------------| (x4)
A|-4(x8)--7(x8)--1(x8)--6(x4)--9(x4)------------|
D|-4-----7-----1-----6-----9---------------|
      F#           A         Ebm      G#m        B

End on F#



Lyrics
Verse 1
I heard you driving in my car 
Then in a frozen bar
And I claimed I didn't care for you
But your verse got trapped inside my head
Over and over again
You played yourself to death in me

Chorus (Instruments)

Verse 2
I thought I'd drop you easily
But that was not to be
You burrowed like a summer tic
So you invade my sleep and confuse my dreams
Turn my nights to sleepless itch

Chorus
Stuck on you 'till the end of time
I'm too tired to fight your rhyme
Stuck on you 'till the end of time
you've got me paralyzed


Verse 3
Holding on the telephone
I hear your midrange moan
You're everywhere inside my room
Even when I'm alone I hear your mellow drone
You're everywhere inside of me

Chorus
Stuck on you 'till the end of time
I'm too tired to fight your rhyme
Stuck on you 'till the end of time
You got me trapped

Bridge
I can't escape your incessant whine
When you beam it out all across the sky
No I can't escape
(stuck on you 'till the end of time)
your insipid rhyme
(I'm too tired to fight your rhyme)
When you shoot it deep
(stuck on you 'till the end of time)
Straight into my mind



 
 
Paramore - Stuck On You Tab :: indexed at Ultimate Guitar.
Stuck On You tabs @ 911Tabs

About the artist behind Stuck On You Tab:

Paramore (IPA: /'pærəmɔər/) is an American rock band that formed in Franklin, Tennessee in 2004 consisting of Hayley Williams (lead vocals/keyboard), Josh Farro (lead guitar/backing vocals), Jeremy Davis (bass guitar), and Zac Farro (drums). The group released their debut album All We Know Is Falling in 2005, and their second album Riot! in 2007, which was certified gold in the US and the UK.

Indexed at Wikipedia.

Show us your talent, perform Stuck On You Tab!

Here you can post a video or audio performance. Tell me more ...
Where can we find your performance? Tell me more ...
Your comment:
Please, log in to post your performance.