Artists by letter: A B C D E F G H I J K L M N O P Q R S T U V W X Y Z 0-9

 
Hallelujah Tab
"Hallelujah" by Paramore

Key:  * - palm mute; H -hammer on; / - slide up;  - slide down

Tuning: Drop D

e|-----|*NOTE:
B|-----| This chord used by guitar 2 is the most accurate version
G|-----| I've seen yet. However, if you have trouble playing it, or if
D|-444-| you don't like the sound of it, it can be replaced. In the
A|-222-| intro and chorus, it can be replaced by barring the 9th fret.
D|-444-| When this chord is used in the bridge, it can be replaced by simply barring the 4th fret.

Intro: Guitar 1
e|--777-999-111111-141414-1414141414---|
B|--777-777-7-7-7—-121212/1111111111---|
G|-------------------------------------|4x
D|-------------------------------------|
A|-------------------------------------|
D|-------------------------------------|
Intro: Guitar 2, starting at ^3rd time through
e|------------------------------------------------|
B|------------------------------------------------|
G|------------------------------------------------|
D|--999-999-9-99-9-99---666-666—-2-22-2-2---------|
A|--999-999-9-99-9-99---666-666—-2-22-2-2---------|
D|--999-999-9-99-9-99---666-666—-2-22-2-2---------|

e|------------------------------------------------|
B|------------------------------------------------|
G|------------------------------------------------|
D|--444-444-4-44-4-44---666-666—-2-22-2-2---------|
A|--222-222-2-22-2-22---666-666—-2-22-2-2---------|
D|--444-444-4-44-4-44---666-666—-2-22-2-2---------| 2x

Verse: Guitar 1, part 1
e|--77-7-----44-4---66-6--|
B|--44-4-----44-4---44-4--|
G|------------------------|2x
D|------------------------|
A|------------------------|
D|------------------------|
Verse: Guitar 2
e|------------------------------------------------|
B|------------------------------------------------|
G|------------------------------------------------|
D|--99-—9---66--6--88--8---99--9---66--6--88--8---|4x
A|--99--9---66--6--99--9---99--9---66--6--99--9---|
D|--99--9---66--6--88--8---99--9---66--6--88--8---|
Verse: Guitar 1, part 2 (staring ^3rd time through)
e|------------------77-6666-------------------------|
B|-------44-55-77------------------44-55-44--44-----|
G|-44-66---------------------44-66---------66-------|
D|--------------------------------------------------|2x
A|--------------------------------------------------|
D|--------------------------------------------------|

Pre-chorus, Guitar 1
e|--777-999-111111-141414-1414141414---------|
B|--777-777-7-7-7—-121212/1111111111---------|
G|-------------------------------------------|2x
D|-------------------------------------------|
A|-------------------------------------------|
D|-------------------------------------------|
Pre-chorus, Guitar 2
e|------------------------------------------------|
B|------------------------------------------------|
G|------------------------------------------------|
D|--9---------------------------------------------|
A|--9---------------------------------------------|
D|--9---------------------------------------------|

Chorus: Guitar 1, part 1
e|--777-999-111111-141414-1414141414---------|
B|--777-777-7-7-7—-121212/1111111111---------|
G|-------------------------------------------|2x
D|-------------------------------------------|
A|-------------------------------------------|
D|-------------------------------------------|
Chorus: Guitar 2
e|------------------------------------------------|
B|------------------------------------------------|
G|------------------------------------------------|
D|--999-999-9-99-9-99---666-666—-2-22-2-2---------|
A|--999-999-9-99-9-99---666-666—-2-22-2-2---------|
D|--999-999-9-99-9-99---666-666—-2-22-2-2---------|
							
e|------------------------------------------------|
B|------------------------------------------------|
G|------------------------------------------------|
D|--444-444-4-44-4-44---666-666—-2-22-2-2---------|
A|--222-222-2-22-2-22---666-666—-2-22-2-2---------|
D|--444-444-4-44-4-44---666-666—-2-22-2-2---------| 2x
Chorus: Guitar 1, part 2
e|----------11~-----9~-----11~-----7~-------------|
B|------------------------------------------------|
G|------8/9-----8/9----8/9-----8/9----------------|
D|------------------------------------------------|2x
A|------------------------------------------------|
D|------------------------------------------------|

Repeat verse

Guitar 1's second pre-chorus:
|--777-999-111111-141414-1414141414-------14-------14-------14-|
|--777-777-7-7-7—-121212/1111111111-11h12----11h12----11h12----|
|--------------------------------------------------------------|
|--------------------------------------------------------------|
|--------------------------------------------------------------|
|--------------------------------------------------------------|

Repeat chorus

Bridge: Guitar 2
e|-----------------------------------------------------|
B|-----------------------------------------------------|
G|-----------------------------------------------------|
D|-111-222-666-99-999111-222-44-44-44-44-44-----------|
A|-111-222-666-99-999111-222-44-44-44-44-44-----------|
D|-111-222-666-99-999111-222-44-44-44-44-44-----------|
  *** *** *** ** *** *** *** ** ** ** ** **
Bridge: Guitar 1, after ^1x through
e|--7-7-7-/9999-777-7-9-7-777-66-------|
B|--------------------------------------|
G|--------------------------------------|
D|--------------------------------------|
A|--------------------------------------|
D|--------------------------------------|

e|-----------------------777-666--------|
B|--777--555-444-----------------7777777|
G|---------------444444-----------------|2x
D|--------------------------------------|
A|--------------------------------------|
D|--------------------------------------|

Guitar 1, solo
e|--------------------7-9-11-12-11/--------|
G|--/7-7-7--5555-44------------------------|
B|-----------------------------------------|
D|-----------------------------------------|
A|-----------------------------------------|
D|-----------------------------------------|
Guitar 2, during solo
e|-----------------------------------------------------|
B|-----------------------------------------------------|
G|-----------------------------------------------------|
D|-111-222-666-99-999111-222-777----------------------|
A|-111-222-666-99-999111-222-777----------------------|
D|-111-222-666-99-999111-222-777----------------------|

repeat chorus

Ending: Guitar 1
e|--77---7-------------|
B|--44---4-------------|
G|---------------------|
D|---------------------|
A|---------------------|
D|---------------------|

Ending: Guitar 2
e|---------------------|
B|---------------------|
G|---------------------|
D|--99-—-9-------------|
A|--99---9-------------|
D|--99---9-------------|



 
 
Paramore - Hallelujah Tab :: indexed at Ultimate Guitar.
Hallelujah tabs @ 911Tabs

About the artist behind Hallelujah Tab:

Paramore (IPA: /'pærəmɔər/) is an American rock band that formed in Franklin, Tennessee in 2004 consisting of Hayley Williams (lead vocals/keyboard), Josh Farro (lead guitar/backing vocals), Jeremy Davis (bass guitar), and Zac Farro (drums). The group released their debut album All We Know Is Falling in 2005, and their second album Riot! in 2007, which was certified gold in the US and the UK.

Indexed at Wikipedia.

Show us your talent, perform Hallelujah Tab!

Here you can post a video or audio performance. Tell me more ...
Where can we find your performance? Tell me more ...
Your comment:
Please, log in to post your performance.