Artists by letter: A B C D E F G H I J K L M N O P Q R S T U V W X Y Z 0-9

 
Emergency Live Tab
Final riot Emegency

tuning - Drop C#
Intro-
1.piano
2.
|--------10~------9~-----------|-------------10~------9~-------------|
|------------------------------|------------------------9~-----------|
|--11~-------------------------|------11~----------------------------|
|------------------------------|-------------------------------------|
|--9---------------------------|------9------------------------------|
|------------------------------|-------------------------------------|


|--------10~------9~-----------|-------------10~------9~-------------|
|------------------------------|-------------------------------------|
|--11~-------------------------|------11~----------------------------|
|------------------------------|-------------------------------------|
|--9---------------------------|------9------------------------------|
|------------------------------|-------------------------------------|


|------------------------------|-------------------------------------|
|------------------------------|-------------------------------------|
|------------------------------|-------------------------------------|
|-4~---------------------------|--4~---------------------------------|
|-4~---------------------------|--4~---------------------------------|
|-4~---------------------------|--4~---------------------------------|


|------------------------------|-------------------------------------|
|------------------------------|-------------------------------------|
|------------------------------|-------------------------------------|
|-4-4-4-4-4-4-4-4-4-4-4-4-4-4~-|-4-4-4-4-4-4-4-4-4-4-4-4-4-4~--------|
|-4-4-4-4-4-4-4-4-4-4-4-4-4-4~-|-4-4-4-4-4-4-4-4-4-4-4-4-4-4~--------|
|-4-4-4-4-4-4-4-4-4-4-4-4-4-4~-|-4-4-4-4-4-4-4-4-4-4-4-4-4-4~--------|
3.
GtrI
|---------9-----9-----9--------|--------7-----7-----7 ---------------|
|----7------7-----7-----7---7--|-----7-----7-----7-----7----7--------|
|--9---9-----9-----9------9----|---9---9-----9-----9------9----------|
|------------------------------|-------------------------------------|
|------------------------------|-------------------------------------|
|------------------------------|-------------------------------------|

4..
GtrI
|------------------------------|-------------------------------------|
|-9/10-101010--10-10-10-10/999-|---9/10-101010--10-10-10-10/999------|
|-9/11-111111--11-11-11-11/999-|---9/11-111111--11-11-11-11/999------|
|-x-x--x-x-x---x--x--x--x--xxx-|---x-x--x-x-x---x--x--x--x--xxx------|
|-7/9--9-9-9---9--9--9--9/-777-|---7/9--9-9-9---9--9--9--9/-777------|
|------------------------------|-------------------------------------|
GtrII
|------------------------------|-------------------------------------|
|------------------------------|-------------------------------------|
|------------------------------|-------------------------------------|
|-2/4--444---4--4--4--4---222--|----2/4--444---4--4--4--4---222------|
|-2/4--444---4--4--4--4---222--|----2/4--444---4--4--4--4---222------|
|-2/4--444---4--4--4--4---222--|----2/4--444---4--4--4--4---222------|

Verse-
this is an emergency.........
GtrI
|---------9-----9-----9--------|--------7-----7-----7 ---------------|
|----7------7-----7-----7---7--|-----7-----7-----7-----7----7--------|
|--9---9-----9-----9------9----|---9---9-----9-----9------9----------|
|------------------------------|-------------------------------------|
|------------------------------|-------------------------------------|
|------------------------------|-------------------------------------|
GtrII
|------------------------------|-------------------------------------|
|------------------------------|-------------------------------------|
|------------------------------|-------------------------------------|
|-0~---------------------------|-0~----------------------------------|
|-0~---------------------------|-0~----------------------------------|
|-0~---------------------------|-0~----------------------------------|

2.
if you....
GtrI
|------------------------------|-------------------------------------|
|-9/10-101010--10-10-10-10/999-|---9/10-101010--10-10-10-10/999------|
|-9/11-111111--11-11-11-11/999-|---9/11-111111--11-11-11-11/999------|
|-x-x--x-x-x---x--x--x--x--xxx-|---x-x--x-x-x---x--x--x--x--xxx------|
|-7/9--9-9-9---9--9--9--9/-777-|---7/9--9-9-9---9--9--9--9/-777------|
|------------------------------|-------------------------------------|
GtrII
|------------------------------|-------------------------------------|
|------------------------------|-------------------------------------|
|------------------------------|-------------------------------------|
|-2/4--444---4--4--4--4---222--|----2/4--444---4--4--4--4---222------|
|-2/4--444---4--4--4--4---222--|----2/4--444---4--4--4--4---222------|
|-2/4--444---4--4--4--4---222--|----2/4--444---4--4--4--4---222------|

Do verse2x

Refrain-
1.
GtrI
|-0-----0-----0-----0-----0----|------0----0-----0-----0-----0-------|
|---0-----0-----0-----0-----0--|---0----0----0-----0-----0-----0-----|
|-----4-----4----4------4----4-|-2--------2----2-----2-----2---------|
|------------------------------|-------------------------------------|
|------------------------------|-------------------------------------|
|------------------------------|-------------------------------------|


GtrII
|--00000~----------------------|--00000~--------------------------|
|--00000~----------------------|--00000~--------------------------|
|--44444-----------------------|--66666~--------------------------|
|--22222~----------------------|--44444~--------------------------|
|--22222~----------------------|--44444~--------------------------|
|--22222-----------------------|--44444---------------------------|

2.
GtrI
|-----0-------0----0-------0---0---|----------------------------------|
|---0---0---0--0-0---0---0---0---0-|----------------------------------|
|-2-------2-----2------2-------2---|--4444-6666-----------------------|
|----------------------------------|--xxxx-xxxx-----------------------|
|----------------------------------|--2222-4444-----------------------|
|----------------------------------|----------------------------------|
GtrII
|-00000~---------------------------|------------------------------------|
|-00000~---------------------------|------------------------------------|
|-22222~---------------------------|-4444-6666--------------------------|
|-00000~---------------------------|-xxxx-xxxx--------------------------|
|-00000~---------------------------|-2222-4444--------------------------|
|-00000----------------------------|------------------------------------|

Chorus-
1.
GtrI

|-----------------------|   --------------------|
|-10--10---9----9-------|   ----12---12--12--12-|
|---9---9---9----9------|   ----9----9---9---9--|
|-----------------------|3x --------------------|
|-----------------------|   --------------------| 
|-----------------------|   --------------------|


|-----------------------|   --------------------|
|-10--10---9----9-------|   --12---12--12--12---|
|---9---9---9----9------|   ----9----9---9---9--|
|-----------------------|3x --------------------|
|-----------------------|   --------------------| 
|-----------------------|   --------------------|
GtrII
|--------------------------------|----------------------------------|
|--------------------------------|----------------------------------|
|--------------------------------|----------------------------------|
|-9999999-0000000-4444444-777777-|--9999999-0000000-4444444-2222222-|
|-9999999-0000000-4444444-777777-|--9999999-0000000-4444444-2222222-|
|-9999999-0000000-4444444-777777-|--9999999-0000000-4444444-2222222-|


2.


GtrI

|-----------------------|   --------------------|
|-10--10---9----9-------|   ----12---12--12--12-|
|---9---9---9----9------|   ----9----9---9---9--|
|-----------------------|3x --------------------|
|-----------------------|   --------------------| 
|-----------------------|   --------------------|


|-----------------------|   --------------------|
|-10--10---9----9-------|   ----12---12--12--12-|
|---9---9---9----9------|   ----9----9---9---9--|
|-----------------------|3x --------------------|
|-----------------------|   --------------------| 
|-----------------------|   --------------------|

GtrII
|--------------------------------|----------------------------------|
|--------------------------------|----------------------------------|
|--------------------------------|----------------------------------|
|-9999999-0000000-4444444-777777-|--9999999-0000000-4444444-2222222-|
|-9999999-0000000-4444444-777777-|--9999999-0000000-4444444-2222222-|
|-9999999-0000000-4444444-777777-|--9999999-0000000-4444444-2222222-|

post-chorus-

do intro3
GtrI
&
GtrII
|------------------------------|
|------------------------------|
|------------------------------|
|-0--0--0--0--0--0--0--0-------|
|-0--0--0--0--0--0--0--0-------|
|-0--0--0--0--0--0--0--0-------|


verse-


GtrI
|------------------------------|-------------------------------------|
|-9/10-101010--10-10-10-10/999-|---9/10-101010--10-10-10-10/999------|
|-9/11-111111--11-11-11-11/999-|---9/11-111111--11-11-11-11/999------|
|-x-x--x-x-x---x--x--x--x--xxx-|---x-x--x-x-x---x--x--x--x--xxx------|
|-7/9--9-9-9---9--9--9--9/-777-|---7/9--9-9-9---9--9--9--9/-777------|
|------------------------------|-------------------------------------|
GtrII
|------------------------------|-------------------------------------|
|------------------------------|-------------------------------------|
|------------------------------|-------------------------------------|
|-2/4--444---4--4--4--4---222--|----2/4--444---4--4--4--4---222------|
|-2/4--444---4--4--4--4---222--|----2/4--444---4--4--4--4---222------|
|-2/4--444---4--4--4--4---222--|----2/4--444---4--4--4--4---222------|


i said we have an emergency
GtrI
&
GtrII
|------------------------------|
|------------------------------|
|------------------------------|
|-0--0--0--0--0--0--0--0-------|
|-0--0--0--0--0--0--0--0-------|
|-0--0--0--0--0--0--0--0-------|



do verse-

do refrain 

repeat chorus-

refrain

solo-


|-------------------|------------------|-----------9-------|------9--------|
|---------9-10-9----|--------9-10-9----|-10-10/12----12----|-10/12--10-9~--|
|-------9--------9~-|-------9-------9~-|----------------9~-|---------------|
|-7-7/9-------------|-7-7/9------------|-------------------|---------------|
|-------------------|------------------|-------------------|---------------|
|-------------------|------------------|-------------------|---------------|

|-------------------|-----------------------|-17-16-------17-16------------|
|---------9-10-9----|-10-10/12--14-17-------|-------17----------17---------|
|-------9--------9~-|-----------------14-14-|---------18~---------16-14-13~|
|-7-7/9-------------|-----------------------|------------------------------|
|-------------------|-----------------------|------------------------------|
|-------------------|-----------------------|------------------------------|



GtrII
|-----------------------------------------------------------|
|-----------------------------------------------------------|
|--------------------4/6---------9/11----------9/11---------|
|--222222-2-4-444444-x-x-000000~-x-x---000000~-x-x----------|2x
|--222222-2-4-444444-2/4-000000~-7/9---000000~-7/9----------|
|--222222-2-4-444444-----000000~-------000000~--------------|


then
GtrI
|-0-----0-----0-----0-----0----|------0----0-----0-----0-----0-------|
|---0-----0-----0-----0-----0--|---0----0----0-----0-----0-----0-----|
|-----4-----4----4------4----4-|-2--------2----2-----2-----2---------|
|------------------------------|-------------------------------------|
|------------------------------|-------------------------------------|
|------------------------------|-------------------------------------|


GtrII
|-----------------------------------------------------------|
|-----------------------------------------------------------|
|-----------------------------------------------------------|
|-2~-----------------4~-------------------------------------|
|-2~-----------------4~-------------------------------------|
|-2~-----------------4~-------------------------------------|

then- 

GtrI
|---------9-----9-----9--------|--------7-----7-----7 ---------------|
|----7------7-----7-----7---7--|-----7-----7-----7-----7----7--------|
|--9---9-----9-----9------9----|---9---9-----9-----9------9----------|
|-0----------------------------|-------------------------------------|
|-0----------------------------|-------------------------------------|
|-0----------------------------|-------------------------------------|





Repeat Chorus-

Chorus-
1.


GtrI
|--------------------------------|----------------------------------|
|--------------------------------|----------------------------------|
|--------------------------------|----------------------------------|
|-9999999-0000000-4444444-777777-|--9999999-0000000-4444444-2222222-|
|-9999999-0000000-4444444-777777-|--9999999-0000000-4444444-2222222-|
|-9999999-0000000-4444444-777777-|--9999999-0000000-4444444-2222222-|



GtrII
|--------------------------------|----------------------------------|
|--------------------------------|----------------------------------|
|--------------------------------|----------------------------------|
|-9999999-0000000-4444444-777777-|--9999999-0000000-4444444-2222222-|
|-9999999-0000000-4444444-777777-|--9999999-0000000-4444444-2222222-|
|-9999999-0000000-4444444-777777-|--9999999-0000000-4444444-2222222-|



2.

GtrI

&
GtrII
|--------------------------------|----------------------------------|
|--------------------------------|----------------------------------|
|--------------------------------|----------------------------------|
|-9999999-0000000-4444444-777777-|--9999999-0000000-4444444-2222222-|
|-9999999-0000000-4444444-777777-|--9999999-0000000-4444444-2222222-|
|-9999999-0000000-4444444-777777-|--9999999-0000000-4444444-2222222-|


Outro-
GtrI
&
GtrII
|---------------------------------------------------------------------------|
|---------------------------------------------------------------------------|
|------------------------------------------------------------------------4~-|
|--0-----0------0------0------0-------0-------0-------0-------0----------4~-|
|--0-----0------0------0------0-------0-------0-------0-------0----------4~-|
|--0-----0------0------0------0-------0-------0-------0-------0----------4~-|

 
 
Paramore - Emergency Live Tab :: indexed at Ultimate Guitar.
Emergency Live tabs @ 911Tabs

About the artist behind Emergency Live Tab:

Paramore (IPA: /'pærəmɔər/) is an American rock band that formed in Franklin, Tennessee in 2004 consisting of Hayley Williams (lead vocals/keyboard), Josh Farro (lead guitar/backing vocals), Jeremy Davis (bass guitar), and Zac Farro (drums). The group released their debut album All We Know Is Falling in 2005, and their second album Riot! in 2007, which was certified gold in the US and the UK.

Indexed at Wikipedia.

Show us your talent, perform Emergency Live Tab!

Here you can post a video or audio performance. Tell me more ...
Where can we find your performance? Tell me more ...
Your comment:
Please, log in to post your performance.