Artists by letter: A B C D E F G H I J K L M N O P Q R S T U V W X Y Z 0-9

 
Crushcrushcrush Acoustic Tab
Song: Crushcrushcrush (Acoustic)
Artist: Paramore
Tab and Chords by: Jorem ([email protected])

               I don't like changing the tune
               of my guitar so i think this is
               how it plays... just listen carefully
               to the song while trying this tab.. GoOd LuCk..^_^

Legend: v = (strumming going up)
        ~ = Vibrate

Tuning: Standard


Intro: 
       
      Cm                   
E|----------|
B|---4--4---|
G|---5--5---|
D|---5--5---|
A|---3--3---|
E|----------|


Verse:

    Cm     D#     A#     Cm
E|-------------------------------|
B|--4--------------------4-------|
G|--5(8x)--8(8x)--7(8x)--5(8x)---|
D|--5------8------8------5-------|
A|--3------6------8------3-------|
E|----------------6--------------|

    Cm     D#     A#     Cm     Cm
E|-------------------------------------|
B|--4--------------------4------4------|
G|--5(8x)--8(8x)--7(8x)--5(8x)--5(8x)--|
D|--5------8------8------5------5------|
A|--3------6------8------3------3------|
E|----------------6--------------------|

  (guitar 2)
E|---------------------------|    |------------------------|
B|---------------------------|    |------------------------|
G|---------------------------|(7x)|------------------------|
D|--13-12-13-12-13-12-13-10--|    |--13-12-13-12-13-12-13--|
A|---------------------------|    |------------------------|
E|---------------------------|    |------------------------|

Refrain:

    G#    A#    Cm
E|--------------3---|
B|--4-----6-----4---|
G|--5-----7-----5---|(2x)
D|--6-----8-----5---|
A|--6-----8-----3---|
E|--4-----6---------|


E|--10-11-10-------11-10~--|
B|-----------11------------|
G|--------------10---------|
D|-------------------------|
A|-------------------------|
E|-------------------------|

Chorus:

    Cm
E|----------------------|
B|---4-----4----4-4-4---|
G|---5-----5----5-5-5---|
D|---5-----5----5-5-5---|
A|---3-----3----3-3-3---|
E|----------------------|
 (crush.. crush.. crush...)

    Cm     D#    A#            G#     Cm    A#
E|-------------------------------------------------------|
B|--4--4------------------------------4--4---------------|
G|--5--5---8--8-----------------------5--5---------------|
D|--5--5---8--8--8--8v-8-------6--6---5--5--8--8v-8------|
A|--3--3---6--6--8--8v-8(5x)---6--6---3--3--8--8v-8(5x)--|
E|---------------6--6v-6-------4--4---------6--6v-6------|
 (nothing compares you..........) 

    Cm     D#    A#            G#    
E|--------------------------------------------|
B|--4--4--------------------------------------|
G|--5--5---8--8-------------------------------|
D|--5--5---8--8--8--8v-8-------6------8-------|
A|--3--3---6--6--8--8v-8(5x)---6(8x)--8(8x)---|
E|---------------6--6v-6-------4------6-------|
 (That never happen.............)

E|-------------------------------------------------8~--|
B|--8-9-8-6-------------------8-9-8-6------------------|
G|----------8--7-8-7-5----------------8--7-8-7-5-------|
D|---------------------8-8-8---------------------8-----|
A|-----------------------------------------------------|
E|-----------------------------------------------------|

(Repeat Verse)

(Repeat Refrain)


Chorus:

    Cm
E|-----------------|
B|---4-----4-------|
G|---5-----5-------|
D|---5-----5-------|
A|---3-----3-------|
E|-----------------|
 (crush.. crush.. crush...)

    Cm     D#    A#            G#     Cm    A#
E|-------------------------------------------------------|
B|--4--4------------------------------4--4---------------|
G|--5--5---8--8-----------------------5--5---------------|
D|--5--5---8--8--8--8v-8-------6--6---5--5--8--8v-8------|
A|--3--3---6--6--8--8v-8(5x)---6--6---3--3--8--8v-8(5x)--|
E|---------------6--6v-6-------4--4---------6--6v-6------|
 (nothing compares you..........) 

    Cm     D#    A#            G#    
E|--------------------------------------------|
B|--4--4--------------------------------------|
G|--5--5---8--8-------------------------------|
D|--5--5---8--8--8--8v-8-------6------8-------|
A|--3--3---6--6--8--8v-8(5x)---6(8x)--8(8x)---|
E|---------------6--6v-6-------4------6-------|
 (That never happen.............)


Bridge:

    Cm  D#  A#  G#
E|--------------------|
B|--------------------|
G|--5---8-------------|(2x)
D|--5---8---8---6-6---|
A|--3---6---8---6-6---|
E|----------6---4-4---|

    Cm  D#  A#  G#
E|--------------------|
B|--------------------|
G|--5---8-------------|(2x)
D|--5---8---8---6-6---|
A|--3---6---8---6-6---|
E|----------6---4-4---|
 (Rock and roll baby.......)

    Cm  D#  A#  G#
E|--------------------|
B|--------------------|
G|--5---8-------------|(4x)
D|--5---8---8---6-6---|
A|--3---6---8---6-6---|
E|----------6---4-4---|________________
 (Rock and roll.......)                |
                                       |(played at the
 (Guitar 2)                            |same time)
E|--11-11-11--10-10-10--8---------|____|
B|--11-11-11--11-11-11--11(10x)---|
G|--8--8--8---8--8--8---8---------|(4x)
D|--------------------------------|
A|--------------------------------|
E|--------------------------------|

Chorus:

    Cm      D#    A#                 G#      Cm    A#         F
E|-----------------------------------------------------------------------|
B|--4-4v-4-----------------------------------4v-4------------------------|
G|--5-5v-5--8v-8-----------------------------5v-5-------------10-10v-10--|
D|--5-5v-5--8v-8--8-8v-8v-8-8v-8v-8--6-6v-6--5v-5--8-8v-8v-8--10-10v-10--|
A|--3-3v-3--6v-6--8-8v-8v-8-8v-8v-8--6-6v-6--3v-3--8-8v-8v-8--8--8v--8---|
E|----------------6-6v-6v-6-6v-6v-6--4-4v-4--------6-6v-6v-6-------------|
 (nothing compares you..........) 

    Cm     D#    A#            G#    
E|--------------------------------------------|
B|--4--4--------------------------------------|
G|--5--5---8--8-------------------------------|
D|--5--5---8--8--8--8--8v-8----6------8-------|
A|--3--3---6--6--8--8--8v-8----6(8x)--8(8x)---|
E|---------------6--6--6v-6----4------6-------|
 (That never happen.............)


   Cm      D#    A#       G#     Cm    A#
E|-----------------------------------------|
B|--4--4-------------------------4--4------|
G|--5--5---8--8------------------5--5------|
D|--5--5---8--8--8--8-----6--6---5--5--8---|
A|--3--3---6--6--8--8-----6--6---3--3--8---|
E|---------------6--6-----4--4---------6---|
 (nothing compares you..........) 

    Cm     D#    A#        G#    
E|----------------------------------------|
B|--4--4----------------------------------|
G|--5--5---8--8---------------------------|
D|--5--5---8--8--8--8--8---6------8-------|
A|--3--3---6--6--8--8--8---6(8x)--8(8x)---|
E|---------------6--6--6---4------6-------|
 (That never happen.............)


    Cm     Cm/B   D#     D#     G#     A#     Cm
E|-----------------------------------------------|
B|--------------------------------------------4--|
G|--5------5------8------8--------------------5--|
D|--5(8x)--5(8x)--8(8x)--8(8x)--6------8------5--|
A|--3------2------6------6------6(8x)--8(8x)--3--|
E|------------------------------4------6---------|_
 (more this.....)                                  |
                                                   |(played at the
 (guitar 2)                                        |same time)
E|--11--10-11-10--8-10-11--10-8-8--|_______________|
B|---------------------------------|
G|---------------------------------|
D|---------------------------------|
A|---------------------------------|
E|---------------------------------|

E|--------------------------------6-8--|
B|------------------------6-8-6-8------|
G|----------5---5-7-8-7-8--------------|
D|--6-5-6-8---8------------------------|
A|-------------------------------------|
E|-------------------------------------|



 
 
Paramore - Crushcrushcrush Acoustic Tab :: indexed at Ultimate Guitar.
Crushcrushcrush Acoustic tabs @ 911Tabs

About the artist behind Crushcrushcrush Acoustic Tab:

Paramore (IPA: /'pærəmɔər/) is an American rock band that formed in Franklin, Tennessee in 2004 consisting of Hayley Williams (lead vocals/keyboard), Josh Farro (lead guitar/backing vocals), Jeremy Davis (bass guitar), and Zac Farro (drums). The group released their debut album All We Know Is Falling in 2005, and their second album Riot! in 2007, which was certified gold in the US and the UK.

Indexed at Wikipedia.

Show us your talent, perform Crushcrushcrush Acoustic Tab!

Here you can post a video or audio performance. Tell me more ...
Where can we find your performance? Tell me more ...
Your comment:
Please, log in to post your performance.