Artists by letter: A B C D E F G H I J K L M N O P Q R S T U V W X Y Z 0-9

 
The Turning Tab
Title: The Turning
Artist: Oasis
Album: Dig Out Your Soul

Tempo: 120 bpm

Note: Tune 6th string to D

Chords:
Dm7 (000211)
G/D (000433)
Gm/D (000333)
D (000232)
Ab (6x0xxx)
G5 (5x0xxx)
F5 (333xxx)
Em (222000)
G5* (333xxx)
D* (xx0232)

Intro:
Dm7          G/D|
Gm/D         D  |           X2

Verse 1:
Eyes over the city
rise up from your soul
They hang over the streets at night
Brought on by the cold

We live with the numbers
Mining a dream for the same old song
What hope for the turning
If everything you know is wrong

Chorus:
         Ab G5         D*
So come on, shake your rag doll, baby
Before you change your mind
Then come on, when the rapture takes me
F5                          Em
Be the fallen angel by my side

Dm7          G/D|
Gm/D         D  | 

Verse 2:
If you carry the lantern
I'll carry you home
You search for the disappeared
I'll bury the cold

Yours is a messiah
Mine is a dream and it won't be long
No hope for the journey
If no-one ever sees the dawn

Chorus:
         Ab G5         D*
So come on, shake your rag doll, baby
Before you change your mind
Then come on, when the rapture takes me
Will you be by my side?
Then come on, when the rapture takes me
F5                          G5*
Be the fallen angel by my side

Solo:
                           Bb5         C5       D*
E|------------------------|------------------------|
B|------------------------|------------------------|
G|------------------------|------------------------|
D|------------------10-12-|12----------------------|
A|--------------/12-------|---------------------10-|
D|------------------------|------------------------|
                           Bb5         C5       D*
E|------------------------|------------------------|
B|------------------------|---------------------10-|
G|------------10----10-12-|---------------------12b|
D|------10-12----12-------|12----------------------|
A|---12-------------------|------------------------|
D|------------------------|------------------------|
                           Bb5         C5       D*
E|------------------------|------------------------|
B|------------------------|------------------------|
G|-----10h12p10--10--10-12|---------------------12-|
D|--------------12--12----|12----------------------|
A|------------------------|------------------------|
D|------------------------|------------------------|
                           Bb5         C5       D*
E|------------13----13-15-|---------------------15b|
B|------13-15----15-------|15----------------------|
G|---14-------------------|------------------------|
D|------------------------|------------------------|
A|------------------------|------------------------|
D|------------------------|------------------------|

E|---p13------------------||
B|------15-15------------||
G|------------------------||
D|------------------------||
A|------------------------||
D|------------------------||

Chorus:
So come on, shake your rag doll, baby
Before you change your mind
Then come on, when the rapture takes me
Will you be by my side?

Hey come on, shake your rag doll, baby
Before you change your mind
Then come on, when the rapture takes me
F5                          Em
Be the fallen angel by my side

Outro:
Dm7          G/D|
Gm/D         D  |           [Repeat and fade]

Outro 2:                    [Fade in - 80 bpm]
  D5/7                     G/D
E|5-----------5-----------|3-----------3-----------|
B|--------3-----------3---|--------3-----------3---|
G|-----5-----------5------|-----4-----------4------|
D|----0------0----0------0|----0------0----0------0|
A|------------------------|------------------------|
D|------------------------|------------------------|
  Gm/D                     D
E|3-----------3h5---------|2-----------2-----------|
B|--------3-----------3---|--------3------------3--|
G|-----3-----------3------|-----2-----------2------|
D|----0------0----0------0|----0------0----0------0|
A|------------------------|------------------------|
D|------------------------|------------------------|
  Dm7                      G/D
E|1-----------1-----------|3-----------3-----------|
B|--------1-----------1---|--------3------------3--|
G|-----2-----------2---2s4|-----4-----------4------|
D|----0------0----0-------|----0------0----0------0|
A|------------------------|------------------------|
D|------------------------|------------------------|
  D
E|2-----------------------||
B|3-----------------------||
G|2-----------------------||
D|0-----------------------||
A|------------------------||
D|------------------------||



 
 
Oasis - The Turning Tab :: indexed at Ultimate Guitar.
The Turning tabs @ 911Tabs

About the artist behind The Turning Tab:

Oasis are an English rock band that formed in Manchester in 1991. The group was formed by Liam Gallagher (lead vocals), Paul Arthurs (guitar), Paul McGuigan (bass) and Tony McCarroll (drums), who were soon joined by Liam's older brother Noel Gallagher (lead guitar, vocals). Oasis have sold more than 50 million albums worldwide,[1] and have had eight UK number one singles. The Gallagher brothers are the band's leading songwriters and the only continual members. The present lineup is completed by rhythm/lead guitarist and songwriter Gem Archer, guitarist and songwriter Andy Bell and unofficial drummer Zak Starkey.

The band initially gained prominence performing on the Manchester club circuit. They were signed to independent record label Creation Records and afterwards released their debut album Definitely Maybe in 1994. The following year, the band recorded (What's the Story) Morning Glory? (1995) with their new drummer Alan White, whilst rivalling with Britpop peers Blur in the charts. The Gallagher brothers were featured regularly in tabloid newspapers for their sibling rivalry and wild lifestyles, cultivating reputations both as bad boys and as a band of the people. At the height of their fame, Oasis' third album, Be Here Now (1997), became the fastest-selling album in UK chart history, but lost much of its long-term appeal after the initial hype and positive reception tempered.

While recording their fourth album Standing on the Shoulder of Giants (2000) in 1999, Oasis lost two founding members and suffered a notable decline in popularity in America. The band added replacements Gem Archer and Andy Bell for Heathen Chemistry (2002). Their sixth album Don't Believe the Truth (2005) with Zak Starkey, despite turbulent recording, became their best-selling and best-received album in a decade. The following year, the band released a compilation album entitled Stop the Clocks. In February 2007, Oasis received the BRIT Award for outstanding contribution to music.

The seventh studio album by the band is reported to be complete and, although an official release date has not been confirmed, both Liam and Noel Gallagher have been quoted as saying that the album is due out in September 2008. [2] [3]

Indexed at Wikipedia.

Show us your talent, perform The Turning Tab!

Here you can post a video or audio performance. Tell me more ...
Where can we find your performance? Tell me more ...
Your comment:
Please, log in to post your performance.