Artists by letter: A B C D E F G H I J K L M N O P Q R S T U V W X Y Z 0-9

 
2 Atoms In A Molecule Tab
-------------------------------------------------------------------------------
			     2 Atoms in a Molecule - Noah and the Whale
-------------------------------------------------------------------------------
Tabbed by: Louis Richards
Email: [email protected]

Tuning: Standard, capo on 2nd

(tabbed in relation to the capo)

An easy song once you get into it!

Main Part
(0:04-1:57)
e|--------------------------------------|
B|--------------------------------------|
G|---2--2-----0--0-----0----------------|
D|-0------4-2------4------0-----0-----0-|
A|-------------------2------2-0---0h2---|
E|--------------------------------------|


Other part
(1:23-1:56)
e|-12-------9-12-9----------------------|
B|--------------------------------------|
G|--------------------------------------|
D|--------------------------------------|
A|--------------------------------------|
E|--------------------------------------|

... and here's the xylophone part too, why not eh? Comes in the same time as the second guitar.
e|-12----------------14-------16--------|
B|--------------------------------------|
G|--------------------------------------|
D|--------------------------------------|
A|--------------------------------------|
E|--------------------------------------|

Ahh all a piece of piss really! 


| /  slide up
|   slide down
| h  hammer-on
| p  pull-off
| ~  vibrato
| +  harmonic
| x  Mute note
===============================================================================

 
 
Noah And The Whale - 2 Atoms In A Molecule Tab :: indexed at Ultimate Guitar.
2 Atoms In A Molecule tabs @ 911Tabs

Quick tip, so you can enjoy 2 Atoms In A Molecule Tab even more:

YourChords.com Guitar Chords and Tabs Archive is currently indexing over 240'000 songs from 21'000+ different artists. And new chords just keep on coming in, so you will surely never run out of them.

Show us your talent, perform 2 Atoms In A Molecule Tab!

Here you can post a video or audio performance. Tell me more ...
Where can we find your performance? Tell me more ...
Your comment:
Please, log in to post your performance.