Artists by letter: A B C D E F G H I J K L M N O P Q R S T U V W X Y Z 0-9

 
You Are Here Tab
-----------------------------------------------------------------------------------------
                               You Are Here - Needtobreathe
-----------------------------------------------------------------------------------------

Tabbed By: Stephen McFall
Email: [email protected]

Tuning: Standard Tuning low to High (E,A,D,G,B,E)

Intro Pt. 1 Gtr. 1 (Clean + Compressor)
E|----------------------------------------------------------------|
B|-3-3-3-3-3-3-3-3-3-3-3-3-3-3-3-3-3-3-3-3-3-3-3-3-3-3-3-3-3-3-3-3|
G|----------------------------------------------------------------| play 2x
D|----------------------------------------------------------------|
A|----------------------------------------------------------------|
E|----------------------------------------------------------------|
PM * * * * * * * * * * * * * * * * * * * * * * * * * * * * * * * *

Intro Pt. 1 Gtr. 2 (Clean + Compressor)
E|-5-2-3-5-2-3-5--2-3-5-2-3-5-2-3-5-2-3-5-2-3-5--------------------------|
B|-----------------------------------------------------------------------|
G|-----------------------------------------------------------------------|
D|-----------------------------------------------------------------------|
A|-----------------------------------------------------------------------|
E|-----------------------------------------------------------------------|
then

E|-2-3-5-2-3-5-2-3-5-2-3-5-2-3-5--2-3-5-2-3-5-2-3-5-2-3-2-3-2-3-2--------|
B|-----------------------------------------------------------------------|
G|-----------------------------------------------------------------------|
D|-----------------------------------------------------------------------|
A|-----------------------------------------------------------------------|
E|-----------------------------------------------------------------------|


Intro Pt. 2 Gtr. 1 (Distortion w/ Auto-Wah & Delay)
E|-5-5-5-9-9-9-10-10-10--10-10-101010101010|
B|----------------------8--8--8-8-8-8-8-8-8|
G|-----------------------------------------|
D|-----------------------------------------|
A|-----------------------------------------|
E|-----------------------------------------|
Then

E|-5-5-5-9-9-9-10-10-10--10-10-10-10|
B|----------------------8--8------8-|
G|-----------------------------------|
D|-----------------------------------|
A|-----------------------------------|
E|-----------------------------------|

Intro Pt. 2 Gtr. 2 (Distorted) play 2x
E|-----------------------------------------------------------------------|
B|-----------------------------------------------------------------------|
G|-7-7-7-9-9-111112-12-12-12-12-12-12-12-12------------------------------|
D|-7-7-7-9-9-111112-12-12-12-12-12-12-12-12------------------------------|
A|-5-5-5-7-7-9-9-10-10-10-10-10-10-10-10-10------------------------------|
E|-----------------------------------------------------------------------|

Verse Gtr. 3 (Acoustic) play 2x
E|-------------------------------------------------|
B|-7-7-7-5-5-5-5-3-3---3---3---3---3---3---3---3---|
G|-7-7-7-6-6-6-6-4-4-4-4-4-4-4-4-4-4-4-4-4-4-4-4-4-|
D|-7-7-7-6-6-6-6-4-4-4-4-4-4-4-4-4-4-4-4-4-4-4-4-4-|
A|-5-5-5-4-4-4-4-2-2-2---2---2---2---2---2---2---2-|
E|-------------------------------------------------|
PM * * * * * * * * * * * * * * * * * * * * * * * *


Verse Gtr. 2 (Distorted) play 2x
E|-----------------------------------------------------------------------|
B|-7~-5~-3~~-------7~-8~~------------------------------------------------|
G|-7~-6~-4~~----4~-7~-9~~------------------------------------------------|
D|-7~-6~-4~~----5~-7~-9~~------------------------------------------------|
A|-5~-4~-2~~----5~-5~-7~~------------------------------------------------|
E|--------------3~-------------------------------------------------------|

Gtr. 3 (Acoustic) Pre-Chorus
E|------3-|
B|-3~~--3-|
G|-2~~--4-|
D|-0~~----|
A|--------|
E|-3~~----|
        *
* = pluck with fingers

Gtrs. 1 & 2 silent for Pre-Chorus

Chorus Gtr. 1 (Distorted)
E|---------------------------------------------------------------|
B|---------------------------------------------------------------|
G|7-7-7-7-7-7-7-7-7-7-7-7-7-7-7-7--------------------------------|
D|7-7-7-7-7-7-7-7-7-7-7-7-7-7-7-7-5-5-5-5-5-5-5-5-5-5-5-5-5-5-5-5|
A|5-5-5-5-5-5-5-5-5-5-5-5-5-5-5-5-5-5-5-5-5-5-5-5-5-5-5-5-5-5-5-5|
E|--------------------------------3-3-3-3-3-3-3-3-3-3-3-3-3-3-3-3|
                                                                   Play all 2x
Continued
E|
B|---------------------------------------------------------------|
G|---------------------------------------------------------------|
D|9-9-9-9-9-9-9-9-9-9-9-9-9-9-9-9-5-5-5-5-5-5-5-5-5-5-5-5-5-5-5-5|
A|9-9-9-9-9-9-9-9-9-9-9-9-9-9-9-9-5-5-5-5-5-5-5-5-5-5-5-5-5-5-5-5|
E|7-7-7-7-7-7-7-7-7-7-7-7-7-7-7-7-3-3-3-3-3-3-3-3-3-3-3-3-3-3-3-3|

Chorus Gtr. 2 (Clean + Compressor) play all 2x
E|-2-3-5-2-3-5-2-3-5-2-3-5-2-3-5-(x3)--2-3-5-2-3-5-2-3-5-2-3-2-3-2-3-2---|
B|-----------------------------------------------------------------------|
G|-----------------------------------------------------------------------|
D|-----------------------------------------------------------------------|
A|-----------------------------------------------------------------------|
E|-----------------------------------------------------------------------|

Repeat Intro Pt. 2

Repeat Verse

Pre-Chorus 2 (Acoustic)
E|------5~|
B|-3~~--3~|
G|-2~~--4~|
D|-0~~----|
A|--------|
E|-3~~----|

Repeat Chorus

Bridge Pt. 1 Gtr. 1 (Distorted)
E|-------------------------------------|
B|-------------------------------------|
G|-7~-7-7~-----------------------------|
D|-7~-7-7~--5~-5-5~--9~-9-9~--5~-5-5~--|
A|-5~-5-5~--5~-5-5~--9~-9-9~--5~-5-5~--|
E|----------3~-3-3~--7~-7-7~--3~-3-3~--|
PM    *        *        *        *

Guitar 2 plays chorus riff 1x for Bridge Pt. 1


Bridge Pt. 2 Gtr. 2 (Clean + Compressor)
E|---5-----5-----5-----5-----5-------3-----3-----3-----3-----3-----------|
B|-----3-----3-----3-----3-----3-------3-----3-----3-----3-----3---------|
G|-2-----2-----2-----2-----2-----2-0-----0-----0-----0-----0-----0-------|
D|-----------------------------------------------------------------------|
A|-----------------------------------------------------------------------|
E|-----------------------------------------------------------------------|
then

E|---2-----2-----2-----2-----2-------3-----3-----3-----3-----3-----------|
B|-----3-----3-----3-----3-----3-------3-----3-----3-----3-----3---------|
G|-4-----4-----4-----4-----4-----4-2-----2-----2-----2-----2-----2-------|
D|-----------------------------------------------------------------------|
A|-----------------------------------------------------------------------|
E|-----------------------------------------------------------------------|


Bridge Pt. 3/Final Chorus Gtr. 1 (Distorted w/ Auto-Wah & Delay) (Neck Pickup) play 3x 
for Bridge and 2x for final chorus (first time in chorus quietly))
E|10-10-10-12-12-12-14-14-14--------------------------|
B|---------------------------12-12-12-10-10-10-10-(x2)|
G|----------------------------------------------------|
D|----------------------------------------------------|
A|----------------------------------------------------|
E|----------------------------------------------------|

Then
E|10-10-10---------------------------------------10-10-10-10-10-10-10-10-10-10-10-10----|
B|--------14-14-14-12-12-12-12-12-12-10-10-10-10-12-12-12-12-12-12-12-12-10-10-10-10-8-7|
G|--------------------------------------------------------------------------------------|
D|--------------------------------------------------------------------------------------|
A|--------------------------------------------------------------------------------------|
E|--------------------------------------------------------------------------------------|


Bridge Pt. 3/Final Chorus Gtr. 2 (Distorted) play all 3x
E|-----------------------------------------------------------------------|
B|-----------------------------------------------------------------------|
G|-7-7-7-7-7-7-7-7-7-7-7-7-7-7-7-7---------------------------------------|
D|-7-7-7-7-7-7-7-7-7-7-7-7-7-7-7-7-5-5-5-5-5-5-5-5-5-5-5-5-5-5-5-5-------|
A|-5-5-5-5-5-5-5-5-5-5-5-5-5-5-5-5-5-5-5-5-5-5-5-5-5-5-5-5-5-5-5-5-------|
E|---------------------------------3-3-3-3-3-3-3-3-3-3-3-3-3-3-3-3-------|
then

E|-----------------------------------------------------------------------|
B|-----------------------------------------------------------------------|
G|-----------------------------------------------------------------------|
D|-9-9-9-9-9-9-9-9-9-9-9-9-9-9-9-9-5-5-5-5-5-5-5-5-5-5-5-5-5-5-5-5-------|
A|-9-9-9-9-9-9-9-9-9-9-9-9-9-9-9-9-5-5-5-5-5-5-5-5-5-5-5-5-5-5-5-5-------|
E|-7-7-7-7-7-7-7-7-7-7-7-7-7-7-7-7-3-3-3-3-3-3-3-3-3-3-3-3-3-3-3-3-------|

Outro Gtr. 1 (Distorted w/ Auto-Wah & Delay)
E|-5-5-5-9-9-10-10-10-10---10-10-10---------5-5-5-9-9-10-10-10-1010101010101010|
B|-----------------------8----------8-8-8-8--------------------8-8-8-8-8-8-8-8~|
G|------------------------------------------------------------------------------|
D|------------------------------------------------------------------------------|
A|------------------------------------------------------------------------------|
E|------------------------------------------------------------------------------|


Outro Gtr. 2 (Distorted)
E|-----------------------------------------------------------------------|
B|-----------------------------------------------------------------------|
G|-7-7-7-9-9-111112-12-12-12-12-12-12-12-12------------------------------|
D|-7-7-7-9-9-111112-12-12-12-12-12-12-12-12------------------------------|
A|-5-5-5-7-7-9-9-10-10-10-10-10-10-10-10-10------------------------------|
E|-----------------------------------------------------------------------|
then

E|-----------------------------------------------------------------------|
B|-----------------------------------------------------------------------|
G|-7-7-7-9~-11~12~-------------------------------------------------------|
D|-7-7-7-9~-11~12~-------------------------------------------------------|
A|-5-5-5-7~-9~-10~-------------------------------------------------------|
E|-----------------------------------------------------------------------|


| /  slide up
|   slide down
| h  hammer-on
| p  pull-off
| ~  vibrato
| +  harmonic
| x  Mute note
===============================================================================


PLEASE RATE!
I wrote this tab originally for use in our churches praise band so it's pretty accurate 
I knew we'd play it live
Btw we pulled it off this song is a lot of fun to play especially if you have the auto-wah
If you don't have an auto wah try using a normal wah or a flanger + a phaser
Thank You!

 
 
Needtobreathe - You Are Here Tab :: indexed at Ultimate Guitar.
You Are Here tabs @ 911Tabs

About the artist behind You Are Here Tab:

Late 2006-Early 2007[1][2]

Genre

Christian rock, CCM

Length

52:35

Label

Atlantic/Word

Producer

Rick Beato, Ed Roland[1]

Professional reviews

All Music Guide link
Jesus Freak Hideout link
Needtobreathe chronology

Daylight
(2006)

The Heat
(2007)

The Heat is the second studio album by the Christian rock band Needtobreathe, released on August 28, 2007 under Atlantic/Word Records.[3] The album reached #164 on Billboard's Top 200 and #2 on the Top Heatseekers charts.[4] The first single from the album, "Signature of Divine (Yahweh)", reached #1 on CHR R&R charts[citation needed], and was the #14 most played song in 2007 on Christian Hit Radio[5]. The Heat was GMA Dove Award-nominated for "Rock/Contemporary Album of the Year", as well as "Rock/Contemporary Song of the Year" for the song "Signature of Divine (Yahweh)".[6]

Indexed at Wikipedia.

Show us your talent, perform You Are Here Tab!

Here you can post a video or audio performance. Tell me more ...
Where can we find your performance? Tell me more ...
Your comment:
Please, log in to post your performance.