Artists by letter: A B C D E F G H I J K L M N O P Q R S T U V W X Y Z 0-9

 
Restless Tab
-------------------------------------------------------------------------------
			     Restless - Needtobreathe
-------------------------------------------------------------------------------
Tabbed by: nodyarg
Email: [email protected]

Tuning: Standard Tuning

*Drum Intro*

Verse 1 (Main Riff)
   A               D               C#              B
e|------------------------------------------------------------------|
B|------------------------------------------------------------------|
G|-----------------7-7-7-7-7-7-7-7-6-6-6-6-6-6-6-6------------------|
D|-7-7-7-7-7-7-7-7---------------------------------9-9-9-9-9-9-9-9--|   X2
A|------------------------------------------------------------------|
E|------------------------------------------------------------------|

Bridge 1
   A
e|-----------0------------0-------------0------------0------------0--|
B|-------------------------------------------------------------------|
G|-------2-------------2------------2-------------2------------2-----|
D|----2-------------2------------2-------------2------------2--------|
A|-0-------------0------------0-------------0------------0-----------|
E|-------------------------------------------------------------------|
                                D
e|----------0-------------0----------------------------------------|
B|-------------2-------------2-------------------------------------|
G|-------2-------------2--------7-7-7-7-7-7-7-7-7-7-7-7-7-7-7-7----|
D|----2-------------2----------------------------------------------|
A|-0-------------0-------------------------------------------------|
E|-----------------------------------------------------------------|

Chorus 1
       (let chords ring)
e|-0---2---2---0---0---2---2---0---0--(2)---1---2---0---2---2---0----|
B|-2---3---2---0---2---3---2---0---2---4----2---3---2---3---2---0----|
G|-2---2---2---1---2---2---2---1---2---4----1---2---2---2---2---1----|
D|-2---0---4---2---2---0---4---2---2---4----3---0---2---0---4---2----|  listen for timing
A|-0-------4---2---0-------4---2---0---2----4-------0-------4---2----|
E|-0-------2---0---0-------2---0---0----------------0-------2---0----|
     
Chorus Chords: A-D-F#m-E  A-D-F#m-E  A-B-C#-D  A-D-F#m-E

Post-Chorus
  A            D            A            D
e|-0-0-0-00000-2-2-2-22222-0-0-0-00000-2-2-2-22222-|
B|-2-2-2-22222-3-3-3-33333-2-2-2-22222-3-3-3-33333-|
G|-2-2-2-22222-2-2-2-22222-2-2-2-22222-2-2-2-22222-|
D|-2-2-2-22222-0-0-0-00000-2-2-2-22222-0-0-0-00000-|
A|-0-0-0-00000-------------0-0-0-00000-------------|
E|-0-0-0-00000-------------0-0-0-00000-------------|

Verse 2 (Main Riff)
   A               D               C#              B
e|------------------------------------------------------------------|
B|------------------------------------------------------------------|
G|-----------------7-7-7-7-7-7-7-7-6-6-6-6-6-6-6-6------------------|
D|-7-7-7-7-7-7-7-7---------------------------------9-9-9-9-9-9-9-9--|   X2
A|------------------------------------------------------------------|
E|------------------------------------------------------------------|

Bridge 2
   A
e|-----------0------------0-------------0------------0------------0--|
B|-------------------------------------------------------------------|
G|-------2-------------2------------2-------------2------------2-----|
D|----2-------------2------------2-------------2------------2--------|
A|-0-------------0------------0-------------0------------0-----------|
E|-------------------------------------------------------------------|
                                D
e|----------0-------------0----------------------------------------|
B|-------------2-------------2-------------------------------------|
G|-------2-------------2--------7-7-7-7-7-7-7-7-7-7-7-7-7-7-7-7----|
D|----2-------------2----------------------------------------------|
A|-0-------------0-------------------------------------------------|
E|-----------------------------------------------------------------|

Chorus 2
       (let chords ring)
e|-0---2---2---0---0---2---2---0---0--(2)---1---2---0---2---2---0----|
B|-2---3---2---0---2---3---2---0---2---4----2---3---2---3---2---0----|
G|-2---2---2---1---2---2---2---1---2---4----1---2---2---2---2---1----|
D|-2---0---4---2---2---0---4---2---2---4----3---0---2---0---4---2----|  X2
A|-0-------4---2---0-------4---2---0---2----4-------0-------4---2----|
E|-0-------2---0---0-------2---0---0----------------0-------2---0----|

Post-Chorus
  A            D            A            D
e|-0-0-0-00000-2-2-2-22222-0-0-0-00000-2-2-2-22222-|
B|-2-2-2-22222-3-3-3-33333-2-2-2-22222-3-3-3-33333-|
G|-2-2-2-22222-2-2-2-22222-2-2-2-22222-2-2-2-22222-|
D|-2-2-2-22222-0-0-0-00000-2-2-2-22222-0-0-0-00000-|
A|-0-0-0-00000-------------0-0-0-00000-------------|
E|-0-0-0-00000-------------0-0-0-00000-------------|

Chorus 3
       (let chords ring)
e|-0---2---2---0---0---2---2---0---0--(2)---1---2---0---2---2---0----|
B|-2---3---2---0---2---3---2---0---2---4----2---3---2---3---2---0----|
G|-2---2---2---1---2---2---2---1---2---4----1---2---2---2---2---1----|
D|-2---0---4---2---2---0---4---2---2---4----3---0---2---0---4---2----|  X2
A|-0-------4---2---0-------4---2---0---2----4-------0-------4---2----|
E|-0-------2---0---0-------2---0---0----------------0-------2---0----|

Outro
e|-0-0-0-00000-2-2-2-22222-0-0-0-00000-2-2-2-22222-0-----|
B|-2-2-2-22222-3-3-3-33333-2-2-2-22222-3-3-3-33333-2-----|
G|-2-2-2-22222-2-2-2-22222-2-2-2-22222-2-2-2-22222-2-----|
D|-2-2-2-22222-0-0-0-00000-2-2-2-22222-0-0-0-00000-2-----| let last A Chord ring
A|-0-0-0-00000-------------0-0-0-00000-------------0-----|
E|-0-0-0-00000-------------0-0-0-00000-------------0-----|


| /  slide up
|   slide down
| h  hammer-on
| p  pull-off
| ~  vibrato
| +  harmonic
| x  Mute note

Lyrics:
Just before you called
I thought we were doing fine
But I was wrong
Your voice came down the line
Forced me to the thought of life
If you were gone

We're just tired of talking to the busy sounds
The hardest heart still breaks when it goes without
We're all the ghosts of who we used to be
We might know, if we could see

Don't look now 'cause I can't escape
I get so restless
We won't know until it's too late
But I'll have years to think of
The way I'd do the things I did 
Just to chase the pain away
We're here now and I can change
But I'm still restless

Push, the urge away
To wake up feeling just the same as yesterday
Time, it heals the pain
But painful is the angry heart when time remains

We're just tired of walking through the faceless crowd
We keep our lonely eyes locked on the ground
And if my legs could run me into you
Then we might know, we might know



 
 
Needtobreathe - Restless Tab :: indexed at Ultimate Guitar.
Restless tabs @ 911Tabs

About the artist behind Restless Tab:

Late 2006-Early 2007[1][2]

Genre

Christian rock, CCM

Length

52:35

Label

Atlantic/Word

Producer

Rick Beato, Ed Roland[1]

Professional reviews

All Music Guide link
Jesus Freak Hideout link
Needtobreathe chronology

Daylight
(2006)

The Heat
(2007)

The Heat is the second studio album by the Christian rock band Needtobreathe, released on August 28, 2007 under Atlantic/Word Records.[3] The album reached #164 on Billboard's Top 200 and #2 on the Top Heatseekers charts.[4] The first single from the album, "Signature of Divine (Yahweh)", reached #1 on CHR R&R charts[citation needed], and was the #14 most played song in 2007 on Christian Hit Radio[5]. The Heat was GMA Dove Award-nominated for "Rock/Contemporary Album of the Year", as well as "Rock/Contemporary Song of the Year" for the song "Signature of Divine (Yahweh)".[6]

Indexed at Wikipedia.

Show us your talent, perform Restless Tab!

Here you can post a video or audio performance. Tell me more ...
Where can we find your performance? Tell me more ...
Your comment:
Please, log in to post your performance.