Artists by letter: A B C D E F G H I J K L M N O P Q R S T U V W X Y Z 0-9

Dont Leave Just Yet Chords (ver 2) - Needtobreathe


 
Dont Leave Just Yet Chords
Intro Tab:
Piano
     Am     C       G      Dm           Am     C      G     Dm
e|------------------------------------|-----------------------------|
B|---1-3-3/5--5-3/1-3---3/6-6-6-5-3h5-|-1-3-3/5--5-3/1-3-----1p0----|
G|-2----------------------------------|--------------------------2--|
D|------------------------------------|-----------------------------|
A|------------------------------------|-----------------------------|
E|------------------------------------|-----------------------------|

Guitar
     Am     C       G      Dm            Am     C       G      Dm
e|-----------------------------------|-----------------------------------|
B|---1-------1-------0-------3-------|---1-------1-------0-------3-------|
G|-2----2--0----0--0----0------------|-2----2--0----0--0----0------------|
D|-------------------------3----3----|-------------------------3----3----|
A|-----------------------------------|-----------------------------------|
E|-----------------------------------|-----------------------------------|

Verse
Am             C           G              Dm
We've lost our love somehow, It's proof without a doubt
Am               C            G              Dm
you give up everything you have to get what you want
Am		     C      G                       Dm
I know we don't separate, but my sins are in the way
Am                    C      G              Dm
And I know that you don't let me get away too far

Interlude
Am	   C	  G		 Dm
Oh oh  Oh oh  Oh oh  Oh oh     [x2]

Verse 2
Am			 C    G              Dm
I begged for one more chance About a million time and I
Am			  C  G              Dm
Come back and ask you for forgiveness again
Am		  C    G              Dm
It's easy to forget the glory in the way we met but you
Am      C	G         Dm
Always remind me of the love that we had

pre-chorus
F							Fm
Let's give this one more chance before we say goodbye

Chorus
C		G	Am	  F
Dont' leave just yet, I was mistaken
C	  G          Am	                F
My hands are tied and my time is wasted
C	E7		Am	        F
And I just want you to know that I need you now
C		G		Am		F
Don't leave just yet

Bridge
C				 G
Cause we're all just the same,
		Am
We all take the back door
		F
We might be to blame
C				G
But I'll be the one to change
		Am
I don't want to come back
		F
To see you get away

Intro progression 2x

Am	   C	  G		Dm
Oh oh  Oh oh  Oh oh  Oh oh  [x2]

[pre-chorus]
F							Fm
Let's give this one more chance before we say goodbye


Chorus
C		G	Am	  F
Dont' leave just yet, I was mistaken
C	  G          Am	                F
My hands are tied and my time is wasted
C	E7		Am	        F
And I just want you to know that I need you now
C		G	Am	     F
Don't leave just yet

C	E7		Am	        F
Ah ah ah-ah Don't Leave


 
 
Needtobreathe - Dont Leave Just Yet Chords :: indexed at Ultimate Guitar.
Dont Leave Just Yet tabs @ 911Tabs

About the artist behind Dont Leave Just Yet Chords:

Late 2006-Early 2007[1][2]

Genre

Christian rock, CCM

Length

52:35

Label

Atlantic/Word

Producer

Rick Beato, Ed Roland[1]

Professional reviews

All Music Guide link
Jesus Freak Hideout link
Needtobreathe chronology

Daylight
(2006)

The Heat
(2007)

The Heat is the second studio album by the Christian rock band Needtobreathe, released on August 28, 2007 under Atlantic/Word Records.[3] The album reached #164 on Billboard's Top 200 and #2 on the Top Heatseekers charts.[4] The first single from the album, "Signature of Divine (Yahweh)", reached #1 on CHR R&R charts[citation needed], and was the #14 most played song in 2007 on Christian Hit Radio[5]. The Heat was GMA Dove Award-nominated for "Rock/Contemporary Album of the Year", as well as "Rock/Contemporary Song of the Year" for the song "Signature of Divine (Yahweh)".[6]

Indexed at Wikipedia.

Show us your talent, perform Dont Leave Just Yet Chords!

Here you can post a video or audio performance. Tell me more ...
Where can we find your performance? Tell me more ...
Your comment:
Please, log in to post your performance.