Artists by letter: A B C D E F G H I J K L M N O P Q R S T U V W X Y Z 0-9

 
The Lies That Bind Tab
TUNING: C# [C#,F#,B,e,g#,c#]

Please note that this tab was originally done by [email protected] I just submitted 
to UG because of requests

Intro:
||----------------------------|----------------------------------------||
||----------------------------|----------------------------------------||
||----------------------------|----------------------------------------||
||-5=====-5-5-5=====----------|-5=====----------5--10-8---88886666-----||
||-3=====-3-3-3=====-11111111-|-3=====----------3---8-6-6---------6666-||
||-3=====-4-4-3=====----------|-3=====-11111111-3-------4--------------||
 |                            |                     . . .               |
||----------------------------|----------------------------------------||
||----------------------------|----------------------------------------||
||----------------------------|----------------------------------------||
||-5=====-5-5-5=====----------|-5=====----------5--10-8----------------||
||-3=====-3-3-3=====-11111111-|-3=====----------3---8-6-6--------------||
||-3=====-4-4-3=====----------|-3=====-11111111-3-------4--------------||
                                                    . . .

Riff 1a (x2)
||----------------------------------|-----------------------------------|
||----------------------------------|-----------------------------------|
||----------------------------------|-----------------------------------|
||-------------------------5--------|-----------------------------------|
||---------6-------3----------------|-2-------3-------2-------5---------|
||-33333333-3333333-3333333-3333333-|--3333333-3333333-3333333-3333333--|
 |                                  |                                  |
||----------------------------------|-----------------------------------|
||----------------------------------|-----------------------------------|
||----------------------------------|-----------------------------------|
||----------------------------------|-----------------------------------|
||---------6-------3-------5--------|-2-------3-------2-------5---------|
||-33333333-3333333-3333333-3333333-|--3333333-3333333-3333333-3333333--|

-|----------------------------------|----------------------------------|
-|----------------------------------|----------------------------------|
-|----------------------------------|----------------------------------|
-|----------------------------------|----------------------------------|
-|-3-------6-------3-------5--------|------------------------------3---|
-|--3333333-3333333-3333333-3333333-|-1111333311114444333366664444-1---|
 |                                  |                              .  |
-|----------------------------------|----------------------------------|
-|----------------------------------|----------------------------------|
-|----------------------------------|----------------------------------|
-|----------------------------------|----------------------------------|
-|-3-------6-------3-------5--------|------------------------------3---|
-|--3333333-3333333-3333333-3333333-|-1111333311114444333366664444-1---|
                                                                   .

-|----------------------------------|-----------------------------------|
-|----------------------------------|-----------------------------------|
-|----------------------------------|-----------------------------------|
-|----------------------------------|-----------------------------------|
-|---------6-------3-------5--------|-2-------3-------2-------3---2-----|
-|-33333333-3333333-3333333-3333333-|--3333333-3333333-3333333-333-333--|
 |                                  |                                  |
-|----------------------------------|-----------------------------------|
-|----------------------------------|-----------------------------------|
-|----------------------------------|-----------------------------------|
-|----------------------------------|-----------------------------------|
-|---------6-------3-------5--------|-2-------3-------2-------3---2-----|
-|-33333333-3333333-3333333-3333333-|--3333333-3333333-3333333-333-333--|

-|----------------------------------|------------------------------||
-|----------------------------------|------------------------------||
-|----------------------------------|------------------------------||
-|----------------------------------|----------------------------5-||
-|-5-------3-------6-------5--------|-----66665555----5555-----6-3-||
-|--3333333-3333333-3333333-3333333-|-4444--------6666----6666-4---||
 |                                  |                               |
-|----------------------------------|------------------------------||
-|----------------------------------|------------------------------||
-|----------------------------------|------------------------------||
-|----------------------------------|----------------------------5-||
-|-5-------3-------6-------5--------|-----66665555----5555-----6-3-||
-|--3333333-3333333-3333333-3333333-|-4444--------6666----6666-4---||

Riff 2
||-----------------------------------|------------------------|
||-----------------------------------|------------------------|
||-----------------------------------|------------------------|
||-----------------------------------|------------------------|
||-6-5-6-5-5555-6-5-6-5-6666-6-5-6-5-|-3-6-5-8-6-5-3-6-5-8-6--|
||-4-3-4-3------4-3-4-3------4-3-4-3-|-1-4-3-6-4-3-1-4-3-6-4--|
 | . . . . .... . . . . .... . . . . |   . .         . . . . |
||-----------------------------------|------------------------|
||-----------------------------------|------------------------|
||-----------------------------------|------------------------|
||-----------------------------------|------------------------|
||-6-5-6-5-5555-6-5-6-5-6666-6-5-6-5-|-3-6-5-8-6-5-3-6-5-8-6--|
||-4-3-4-3------4-3-4-3------4-3-4-3-|-1-4-3-6-4-3-1-4-3-6-4--|
   . . . . .... . . . . .... . . . .     . .         . . . .

-|-----------------------------------|-----------------------------------|
-|-----------------------------------|-----------------------------------|
-|-----------------------------------|-----------------------------------|
-|-----------------------------------|-----------------------------------|
-|-5-6-5-6-6666-5-6-5-6-5555-6-5-8-6-|-33333333333333335555333355556666--|
-|-3-4-3-4------3-4-3-4------4-3-6-4-|-----------------------------------|
 | . . . . .... . . . . .... . . . . |                                  |
-|-----------------------------------|-----------------------------------|
-|-----------------------------------|-----------------------------------|
-|-----------------------------------|-----------------------------------|
-|-----------------------------------|-----------------------------------|
-|-5-6-5-6-6666-5-6-5-6-5555-6-5-8-6-|-33333333333333335555333355556666--|
-|-3-4-3-4------3-4-3-4------4-3-6-4-|-----------------------------------|
   . . . . .... . . . . .... . . . .

-|-----------------------------------|------------------------|
-|-----------------------------------|------------------------|
-|-----------------------------------|------------------------|
-|-----------------------------------|------------------------|
-|-6-5-6-5-5555-6-5-6-5-6666-6-5-6-5-|-3-6-5-8-6-5-3-6-5-8-6--|
-|-4-3-4-3------4-3-4-3------4-3-4-3-|-1-4-3-6-4-3-1-4-3-6-4--|
 | . . . . .... . . . . .... . . . . |   . .         . . . . |
-|-----------------------------------|------------------------|
-|-----------------------------------|------------------------|
-|-----------------------------------|------------------------|
-|---------5555---------6666---------|------------------------|
-|-6-5-6-5------6-5-6-5------6-5-6-5-|-3-6-5-8-6-5-3-6-5-8-6--|
-|-4-3-4-3------4-3-4-3------4-3-4-3-|-1-4-3-6-4-3-1-4-3-6-4--|
   . . . . .... . . . . .... . . . .     . .         . . . .

-|-----------------------------------|--------------------------------------------------||
-|-----------------------------------|--------------------------------------------------||
-|-----------------------------------|--------------------------------------------------||
-|-----------------------------------|----------10-8---8"...-6"...-5"...-||
-|-5-6-5-6-6666-5-6-5-6-5555-6-5-8-6-|-33333333--8-6-6----------------------------------||
-|-3-4-3-4------3-4-3-4------4-3-6-4-|---------------4----------------------------------||
 | . . . . .... . . . . .... . . . . |           . . .                    |
-|-----------------------------------|--------------------------------------------------||
-|-----------------------------------|--------------------------------------------------||
-|-----------------------------------|-----------------10"..-8"...-7"...-||
-|---------6666---------5555---------|----------10-8------------------------------------||
-|-5-6-5-6------5-6-5-6------6-5-8-6-|-33333333--8-6-6----------------------------------||
-|-3-4-3-4------3-4-3-4------4-3-6-4-|---------------4----------------------------------||
   . . . . .... . . . . .... . . . .             . . .

[RIFF 1a]

[Riff 1b]
||----------------------------------|-----------------------------------|
||----------------------------------|-----------------------------------|
||----------------------------------|-----------------------------------|
||-------------------------5--------|-----------------------------------|
||---------6-------3----------------|-2-------3-------2-------5---------|
||-33333333-3333333-3333333-3333333-|--3333333-3333333-3333333-3333333--|
 |                                  |                                  |
||----------------------------------|-----------------------------------|
||----------------------------------|-----------------------------------|
||---------8-------5-------7--------|-4-------5-------4-------7---------|
||-55555555-5555555-5555555-5555555-|--5555555-5555555-5555555-5555555--|
||----------------------------------|-----------------------------------|
||----------------------------------|-----------------------------------|

-|----------------------------------|----------------------------------|
-|----------------------------------|----------------------------------|
-|----------------------------------|----------------------------------|
-|----------------------------------|----------------------------------|
-|-3-------6-------3-------5--------|------------------------------3---|
-|--3333333-3333333-3333333-3333333-|-1111333311114444333366664444-1---|
 |                                  |                              .  |
-|----------------------------------|----------------------------------|
-|----------------------------------|----------------------------------|
-|-5-------8-------5-------7--------|----------------------------------|
-|--5555555-5555555-5555555-5555555-|-3333555533336666555588886666-----|
-|----------------------------------|------------------------------3---|
-|----------------------------------|------------------------------1---|
                                                                   .

-|----------------------------------|-----------------------------------|
-|----------------------------------|-----------------------------------|
-|----------------------------------|-----------------------------------|
-|----------------------------------|-----------------------------------|
-|---------6-------3-------5--------|-2-------3-------2-------3---2-----|
-|-33333333-3333333-3333333-3333333-|--3333333-3333333-3333333-333-333--|
 |                                  |                                  |
-|----------------------------------|-----------------------------------|
-|----------------------------------|-----------------------------------|
-|---------8-------5-------7--------|-4-------5-------4-------5---4-----|
-|-55555555-5555555-5555555-5555555-|--5555555-5555555-5555555-555-555--|
-|----------------------------------|-----------------------------------|
-|----------------------------------|-----------------------------------|

-|----------------------------------|------------------------------||
-|----------------------------------|------------------------------||
-|----------------------------------|------------------------------||
-|----------------------------------|----------------------------5-||
-|-5-------3-------6-------5--------|-----66665555----5555-----6-3-||
-|--3333333-3333333-3333333-3333333-|-4444--------6666----6666-4---||
 |                                  |                          .    |
-|----------------------------------|------------------------------||
-|----------------------------------|------------------------------||
-|-7-------5-------8-------7--------|-----88887777----7777---------||
-|--5555555-5555555-5555555-5555555-|-6666--------8888----8888---5-||
-|----------------------------------|--------------------------6-3-||
-|----------------------------------|--------------------------4---||
                                                               .

[Riff 3 (x2)]
||-------------------------------|----------------------------|
||-------------------------------|----------------------------|
||-------------------------------|----------------------------|
||---------------7-7-7-7-8-8-8-8-|----------------------------|
||-5-5-5-5-6-5-5-5-5-5-5-6-6-6-6-|-5-5-5-5-6-5-5-3-3-3-6-6-6--|
||-3-3-3-3-4-3-3-5-5-5-5-6-6-6-6-|-3-3-3-3-4-3-3-1-1-1-4-4-4--|
 |                               |                           |
||-------------------------------|----------------------------|
||-------------------------------|----------------------------|
||-------------------------------|----------------------------|
||---------------7-7-7-7-8-8-8-8-|----------------------------|
||-5-5-5-5-6-5-5-5-5-5-5-6-6-6-6-|-5-5-5-5-6-5-5-3-3-3-6-6-6--|
||-3-3-3-3-4-3-3-5-5-5-5-6-6-6-6-|-3-3-3-3-4-3-3-1-1-1-4-4-4--|

-|-------------------------------|-[ending 1]-----------------------||
-|-------------------------------|----------------------------------||
-|-------------------------------|----------------------------------||
-|---------------7-7-7-7-8-8-8-8-|----------------------------------||
-|-5-5-5-5-6-5-5-5-5-5-5-6-6-6-6-|-33333333333333335555333355556666-||
-|-3-3-3-3-4-3-3-5-5-5-5-6-6-6-6-|----------------------------------||
 |                               |                                   |
-|-------------------------------|----------------------------------||
-|-------------------------------|----------------------------------||
-|-------------------------------|-55555555555555557777555577778888-||
-|---------------7-7-7-7-8-8-8-8-|----------------------------------||
-|-5-5-5-5-6-5-5-5-5-5-5-6-6-6-6-|----------------------------------||
-|-3-3-3-3-4-3-3-5-5-5-5-6-6-6-6-|----------------------------------||

-[ending 2]-----------------------||
----------------------------------||
----------------------------------||
----------------------------------||
-33333333333333335555333355556666-||
----------------------------------||
                                   |
----------------------------------||
----------------------------------||
-55555555555555557777555577778888-||
----------------------------------||
----------------------------------||
----------------------------------||

[Riff 4]
||----------------------------------|-----------------------------------|
||----------------------------------|-----------------------------------|
||----------------------------------|-----------------------------------|
||----------------------------------|-----------------------------------|
||---------6666----5555666688886666-|---------5555----5555666655555555--|
||-44444444----4444-----------------|-33333333----3333------------------|
|                                   |                                  |
||----------------------------------|-----------------------------------|
||----------------------------------|-----------------------------------|
||----------------------------------|-----------------------------------|
||----------------------------------|-----------------------------------|
||---------6666----5555666688886666-|---------5555----5555666655555555--|
||-44444444----4444-----------------|-33333333----3333------------------|

-|----------------------------------|-----------------------------------|
-|----------------------------------|-----------------------------------|
-|----------------------------------|-----------------------------------|
-|---------7777----7777888877777777-|-------------------------55556666--|
-|----------------------------------|-333333333333333366665555----------|
-|-33333333----3333-----------------|-----------------------------------|
 |                                  |                                  |
-|----------------------------------|-----------------------------------|
-|----------------------------------|-----------------------------------|
-|----------------------------------|-----------------------------------|
-|---------7777----7777888877777777-|-------------------------55556666--|
-|----------------------------------|-333333333333333366665555----------|
-|-33333333----3333-----------------|-----------------------------------|

-|----------------------------------|-----------------------------[x2]--|
-|----------------------------------|-----------------------------------|
-|----------------------------------|-----------------------------------|
-|---------888866665555-------------|-----------------------------------|
-|---------------------888866665555-|---------66665555----55553333------|
-|-44444444-------------------------|-33333333--------6666--------4444--|
 |                                  |                                  |
-|----------------------------------|-----------------------------[x2]--|
-|----------------------------------|-----------------------------------|
-|----------------------------------|-----------------------------------|
-|---------888866665555-------------|-----------------------------------|
-|---------------------888866665555-|---------66665555----55553333------|
-|-44444444-------------------------|-33333333--------6666--------4444--|

----------------------------------------------------------------------|
----------------------------------------------------------------------|
----------------------------------------------------------------------|
----------------------------------------------------------------------|
--33333333333333335555333355556666----------6666----5555666688886666--|
------------------------------------44444444----4444------------------|

----------------------------------------------------------------------|
----------------------------------------------------------------------|
----------------------------------------------------------------------|
----------------------------------------------------------------------|
--33333333333333335555333355556666----------6666----5555666688886666--|
------------------------------------44444444----4444------------------|

---------------------------------------------------------------------|
---------------------------------------------------------------------|
---------------------------------------------------------------------|
--------------------------------------------7777----7777888877777777-|
----------5555----5555666655555555-----------------------------------|
--33333333----3333------------------33333333----3333-----------------|

---------------------------------------------------------------------|
---------------------------------------------------------------------|
---------------------------------------------------------------------|
--------------------------------------------7777----7777888877777777-|
----------5555----5555666655555555-----------------------------------|
--33333333----3333------------------33333333----3333-----------------|

---------------------------------------------------------------------|
---------------------------------------------------------------------|
---------------------------------------------------------------------|
--------------------------55556666----------888866665555-------------|
--333333333333333366665555------------------------------888866665555-|
------------------------------------44444444-------------------------|

---------------------------------------------------------------------|
--------------------------------------------66664444-----------------|
--------------------------77778888------------------77775555---------|
------------------88887777----------------------------------88887777-|
--3333333333333333---------------------------------------------------|
------------------------------------44444444-------------------------|

--------------------------------------------------------------------|
--------------------------------------------------------------------|
--------------------------------------------------------------------|
--------------------------------------------------------------------|
---------66665555----55553333--------------66665555----55553333-----|
-33333333--------6666--------4444--33333333--------6666--------4444-|

--------------------------------------------------------------------|
--------------------------------------------------------------------|
--------------------------------------------------------------------|
-------------------------------------------88887777----77775555-----|
---------66665555----55553333------55555555--------8888--------6666-|
-33333333--------6666--------4444-----------------------------------|

--------------------------------------------------------------|
--------------------------------------------------------------|
--------------------------------------------------------------|
--------------------------------------------8--7-----7--6-----|
---------66665555----55553333---------------6--5--8--5--3--6--|
-33333333--------6666--------4444--33333333-------6--------4--|
                                            .  .  .  .  .  .
--------------------------------------------------------------|
--------------------------------------------------------------|
---------88887777----77775555---------------------------------|
-55555555--------8888--------6666-----------8--7-----7--6-----|
--------------------------------------------6--5--8--5--3--6--|
-----------------------------------33333333-------6--------4--|

 
 
Misery Index - The Lies That Bind Tab :: indexed at Ultimate Guitar.
The Lies That Bind tabs @ 911Tabs
People who played Misery Index - The Lies That Bind Tab also played these songs by Misery Index:
The Spectator Tab, The Imperial Ambition Tab, Retaliate Tab, Outsourcing Jehovah Tab, Demand The Impossible Tab, Retaliate Tab

Quick tip, so you can enjoy The Lies That Bind Tab even more:

After the registration (which takes just 10 seconds, remember?) you will be able to use your profile - your very own piece of YourChords.com.

Show us your talent, perform The Lies That Bind Tab!

Here you can post a video or audio performance. Tell me more ...
Where can we find your performance? Tell me more ...
Your comment:
Please, log in to post your performance.