Artists by letter: A B C D E F G H I J K L M N O P Q R S T U V W X Y Z 0-9

 
Fita Cola - Desafio Principal Tab
Fita Cola - Desafio Principal

!ATENÇAO! As tabs foram feitas por mim por ouvido. As tabs não estão por ordem mas vocês conseguem
la chegar. Espero que não tenha erros e que soe tao bem a voces como a mim. Boas guitarradas =D 
Fita Cola Rullez! ;)

. -> Palm Mute
s -> slide

e|-----------------------------------------------|
B|-----------------------------------------------|
G|-----------------------------------------------| (x2)  Riff 1
D|--7777777-----------1010101010-----------------|
A|--5555555--8888888--8-8-8-8-8------10101010----|
E|-----------6666666-----------------8-8-8-8-----|
    .......  .......  .........      ........
e|-----------------------------------------------|
B|-----------------------------------------------|
G|--7-7-7-------------10101010-------------------|
D|--7-7-7----8-8-8-8--10101010--10101010---------| (x2)  Riff 2
A|--5-5-5----8-8-8-8---8-8-8-8--10101010---------|
E|-----------6-6-6-6-------------8-8-8-8---------|

e|-----------------------------------------------|
B|-----------------------------------------------|
G|----------------7-7-7--------------------------|
D|--8-8-8--7-7-7--7-7-7--------------------------| (x2)  Riff 3
A|--8-8-8--7-7-7--5-5-5--------------------------|
E|--6-6-6--5-5-5---------------------------------|

e|-----------------------------------------------|
B|-----------------------------------------------|
G|----------------7-7-7--3-3-3--5-5-5------------|
D|--8-8-8--7-7-7--7-7-7--3-3-3--5-5-5------------|	Riff 4
A|--8-8-8--7-7-7--5-5-5--1-1-1--3-5-5------------|
E|--6-6-6--5-5-5---------------------------------|


e|-----------------------------------------------|
B|-----------------------------------------------|
G|---------3-3-3---------5-5-5-------------------|
D|--3-3-3--3-3-3--3-3-3--5-5-5-------------------|      Riff 5
A|--3-3-3--1-1-1--3-3-3--3-3-3-------------------|
E|--1-1-1---------1-1-1--------------------------|


e|-----------------------------------------------|
B|-----------------------------------------------|
G|-----------------------------------------------|
D|--8--10----------------------------------------|	Riff 6
A|--8--10----------------------------------------|
E|--6---8----------------------------------------|

e|-----------------------------------------------|
B|--1010101010-888888-66666--101010-131313-8888--|
G|-----------------------------------------------|
D|-----------------------------------------------|
A|-----------------------------------------------|     Solo
E|-----------------------------------------------|

e|-----------------------------------------------|
B|--------6-5--------6-5-------------------------|
G|-5-5s7-----7-7-5-7-----7-7-5-7-----------------|
D|-------------------------------5-7-10-10-12-10-|
A|-----------------------------------------------|
E|-----------------------------------------------|

e|-----------------------------------------------|
B|-----------------------------------------------|
G|------5-5---5-5--10-9-7-5----------------------|
D|-----------------------------------------------|
A|--5-5-----5------------------------------------|
E|-----------------------------------------------|

e|-----------------------------------------------|
B|-----------------------------------------------|
G|---555-777-999-1010-7--------------------------|
D|-----------------------------------------------|
A|-----------------------------------------------|
E|-----------------------------------------------|

Tabs feitas por:
j0rz3h!ms3lf--> eu =P

 
 
Misc Unsigned Bands - Fita Cola - Desafio Principal Tab :: indexed at Ultimate Guitar.
Fita Cola - Desafio Principal tabs @ 911Tabs

Quick tip, so you can enjoy Fita Cola - Desafio Principal Tab even more:

You might want to transpose the song if it is too high or too low for you to sing. Just click the desired option while playing a song and all the chords will automatically be transponded into a new key.

Show us your talent, perform Fita Cola - Desafio Principal Tab!

Here you can post a video or audio performance. Tell me more ...
Where can we find your performance? Tell me more ...
Your comment:
Please, log in to post your performance.