Artists by letter: A B C D E F G H I J K L M N O P Q R S T U V W X Y Z 0-9

 
Fallen Fate - They Must Fall Tab
FALLEN FATE
THEY MUST FALL (WE ARE THE NEW BREED)
REVENGANCE EP

DROP D TUNING

Tabbed By Lee



INTRO/MAIN RIFF - X2
|--------------------------------------------------------------------------------------------------|
|--------------------------------------------------------------------------------------------------|
|--------------------------------------------------------------------------------------------------|
|----87-------------------------87------------------87------------------------87-----4h5p4----4----|
|----65----1-0---------0h1------65-----55--11-0---0-65----1-0---------0h1-----65-----------650-5h6-|
|-00----00-1-0--001p0-------00----00--55--11-0---0----00-1-0--00-1p0-------00--000----------------|


VERSE - X2
|--------------------------------------------------------------------------------------------------|
|--------------------------------------------------------------------------------------------------|
|--------------------------------------------------------------------------------------------------|
|-----------1----------------------------------------------1-------------------------4h5p4----4----|
|----1-0----1-0-------0h1------1-0-----55--11-0-----1-0----1-0-------0h1------1-0----------650-5h6-|
|-00-100-00--00-00-1p0------00-100-00--55--11-0---0-100-00--00-00-1p0------00-100-000--------------|


PRE-CHORUS 1
|-----------------------------------------------------------|
|-----------------------------------------------------------|
|-----------------------------------------------------------|
|-----------------------------------------------------------|
|-1p0----3h4----1p0----3h4---1-0----0-----1-----------------|
|-1p0-00-3h4-00-1p0-00-3h4-0-1-0-00-0-00----3-2-1-4-0-1h4---|

|-----------------------------------------------------------|
|-----------------------------------------------------------|
|-----------------------------------------------------------|
|-----------------------------------------------------------|
|-1p0----3h4----1p0----3h4---1-0----0-----1-------1---1h4---|
|-1p0-00-3h4-00-1p0-00-3h4-0-1-0-00-0-00----3-2-1---0-------|


PRE-CHORUS 2
|------------------------------------------------------------------------|
|------------------------------------------------------------------------|
|------------------------------------------------------------------------|
|------------------------------------------------------------------------|
|-1p0------3h4------1p0------3h4---1-0------3h4------1p0------3h4---1-0--|
|-1p0-0000-3h4-0000-1p0-0000-3h4-0-1-0-0000-3h4-0000-1p0-0000-3h4-0-1-0--|

|----------------------------------------------------------------|
|----------------------------------------------------------------|
|----------------------------------------------------------3-----|
|------------------------------------------------------------4---|
|------3h4------1p0------3h4----------11111-3-1-----00000--------|
|-0000-3h4-0000-1p0-0000-3h4--0000--4-------------3--------------|


VERSE - X2

PRE-CHORUS 2


CHORUS - X2
|--------------------------------------------------------------------------|
|--------------------------------------------------------------------------|
|--------------------------------------------------------------------------|
|--5~-51~-1-0-0-------------------------5~-5-1~-------------------4h5p4---|
|--5~-51~-1-0-0--6-5--35--5h6p5-3h5----5~-5-1~-131----6-5--3-5-------5h6-|
|--5~-51~-1-0-0---0-00-0-00-------------5~-5-1~-131--00-0-00-0-00---------|

END CHORUS ON THIS
|-------------------------|
|-------------------------|
|-------------------------|
|--5~-5-1~----------------|
|--5~-5-1~-131--0~~~------|
|--5~-5-1~-131--0~~~------|


BRIDGE RIFF 1 - X4
|------------------------------------------------------------------------------------------------|
|------------------------------------------------------------------------------------------------|
|------------------------------------------------------------------------------------------------|
|-66-----------------------------2h3ph---2---------66-----------------------------2h3p2---2------|
|--------33------55------5b------------5---5-3------------33------55------5b------------5---5-4--|
|---0000----0000----0000----0000---------------------0000----0000----0000----0000----------------|

END ON THIS FILL
|------------------------------------|
|------------------------------------|
|------------------------------------|
|--5h6p5-3-5-3-----------------------|
|--------------6-5-//----------------|
|------------------//----------------|


BRIDGE RIFF 2 - X2
|---------------------------------------------------------------------|
|---------------------------------------------------------------------|
|---------------------------------------------------------------------|
|------------------------5~--1~-------------------4h5p4------5~--1~---|
|---6-5--3-5--5h6p5-3h5--5~--1~--------6-5--3-5---------5h6--5~--1~---|
|-00-0-00-0-00-----------5~--1~------00-0-00-0-00------------5~--1~---|


BRIDGE RIFF 3
|--------------------------------------------------------------------------------------------|
|--------------------------------------------------------------------------------------------|
|--------------------------------------------------------------------------------------------|
|--------------------------------------4h5p4--------------------------------------------54---|
|-/--6-5--3-5--5h6p5-3h5-----6-5--3-5-------5h6------6-5--3-5--5h6p5-3h5------6-5--3-5----65-|
|-/00-0-00-0-00------------00-0-00-0-00------------00-0-00-0-00-------------00-0-00-0-00-----|


BRIDGE RIFF 4 (GUITAR 1)
|-----------------------------------------------------------------------------------|
|-----------------------------------------------------------------------------------|
|------------------------------3~--3/6---6~-666-----3~--3/7---7~-----7--7--7/8------|
|-5~---5-1~---1-4~---4-0~--0---x~--x/x---x~-xxx-----x~--x/x---x~-----x--x--x/x------|
|-5~---5-1~---1-4~---4-0~--0---1~--1/4---4~-444-----1~--1/5---5~-----5--5--5/6------|
|-5~---5-1~---1-4~---4-0~--0--------------------------------------------------------|

BRIDGE RIFF 4 (GUITAR 2)
|-----------------------------------------------------------------------------------|
|-----------------------------------------------------------------------------------|
|------------------------------3~--3/6---6~-666-----7~--7/11--11~-----11-11-11/12---|
|-5~---5-1~---1-4~---4-0~--0---x~--x/x---x~-xxx-----x~--x/x---x-~-----x--x--x-/x----|
|-5~---5-1~---1-4~---4-0~--0---1~--1/4---4~-444-----5~--5/9---9-~-----9--9--9-/10---|
|-5~---5-1~---1-4~---4-0~--0--------------------------------------------------------|


SOLO BACKING 
|--------------------------------------------------------------------------------------------------|
|--------------------------------------------------------------------------------------------------|
|--------------------------------------------------------------------------------------------------|
|-------------------------------------4h5p4------------------------------------------54----5~-5-1~-|
|---6-5--3-5--5h6p5-3h5----6-5--3-5-------5h6-----6-5--3-5--5h6p5-3h5-----6-5--3-5-----65--5~-5-1~-|
|-00-0-00-0-00-----------00-0-00-0-00-----------00-0-00-0-00------------00-0-00-0-00-------5~-5-1~-|


BRIDGE RIFF 4 (G1 & G2)

INTRO/MAIN RIFF

VERSE - X2

CHORUS X2

END CHORUS - X2 (GUITAR 1)
|--------------------------------------------------------------------------|
|--------------------------------------------------------------------------|
|--------------------------------------------------------------------------|
|--5~-51~-1-0-0-------------------------5~-5-1~-------------------4h5p4---|
|--5~-51~-1-0-0--6-5--35--5h6p5-3h5----5~-5-1~-131----6-5--3-5-------5h6-|
|--5~-51~-1-0-0---0-00-0-00-------------5~-5-1~-131--00-0-00-0-00---------|

|--------------------------------------------------------|---------ENDING--------|
|--------------------------------------------------------|-----------------------|
|--------------------------------------------------------|-----------------------|
|--5~-51~-1-0-0---------------------------5~-5-1~-------|---------------1-------|
|--5~-51~-1-0-0--6-5--35--5h6p5-3h5------5~-5-1~-131---|---00-1---0----1---0---|
|--5~-51~-1-0-0---0-00-0-00---------------5~-5-1~-131---|---00-1-0-0-00---0-0---|


END CHORUS - X2 (GUITAR 2)
|-----------------------------------------------------------------------------|
|-----------------------------------------------------------------------------|
|-12~-12-8~-8-7---------------------------12~-12-8~---------------------------|
|-X-~-X--X~-X-X---------------------------X---X--X-------------------4h5p4----|
|-10~-10-6~-6-5---6-5--35--5h6p5-3h5-----10~-10-6~-131----6-5--3-5-------5h6-|
|---------------0-0-00-0-00------------------------131--00-0-00-0-00---------|


|---------------------------------------------------------|---------ENDING-------|
|---------------------------------------------------------|----------------------|
|-12~-12-8~-8-7---------------------------12~-12-8~-------|----------------------|
|-X-~-X--X~-X-X---------------------------X---X--X--------|---------------1------|
|-10~-10-6~-6-5---6-5--35--5h6p5-3h5-----10~-10-6~-131---|---00-1---0----1---0--|
|---------------0-0-00-0-00------------------------131---|---00-1-0-0-00---0-0--|


WWW.MYSPACE.COM/FALLENFATE1
WWW.FALLENFATE.CO.UK

 
 
Misc Unsigned Bands - Fallen Fate - They Must Fall Tab :: indexed at Ultimate Guitar.
Fallen Fate - They Must Fall tabs @ 911Tabs

Quick tip, so you can enjoy Fallen Fate - They Must Fall Tab even more:

YourChords.com Guitar Chords and Tabs Archive is currently indexing over 240'000 songs from 21'000+ different artists. And new chords just keep on coming in, so you will surely never run out of them.

Show us your talent, perform Fallen Fate - They Must Fall Tab!

Here you can post a video or audio performance. Tell me more ...
Where can we find your performance? Tell me more ...
Your comment:
Please, log in to post your performance.