Artists by letter: A B C D E F G H I J K L M N O P Q R S T U V W X Y Z 0-9

Eternal Licks - The Waning Light Chords - Misc Unsigned Bands


 
Eternal Licks - The Waning Light Chords
The Waning Light

tuning: d a d g b e 

Intro:

Guitar 1:

e-----------------|                   e---------------------|
b-----------------|                   b---------------------|
g-7-7-7-7-7-7-7-7-|    Play 2 times   g-7-7-7-11-11-9--9--7-|
d-4-4-4-7-7-7-7-7-|                   d-4-4-4-12-12-11-11-7-|
a-0-0-0-5-5-5-5-5-|                   a-0-0-0-9--9--7--7--5-|
d-0-0-0-5-5-5-5-5-|                   d-0-0-0-9--9--7--7--5-|

Verse 1: 

Guitar 1:

e-----------------|                   e---------------------|
b-----------------|                   b---------------------|
g-7-7-7-7-7-7-7-7-|    Play 2 times   g-7-7-7-11-11-9--9--7-|
d-4-4-4-7-7-7-7-7-|                   d-4-4-4-12-12-11-11-7-|
a-0-0-0-5-5-5-5-5-|                   a-0-0-0-9--9--7--7--5-|
d-0-0-0-5-5-5-5-5-|                   d-0-0-0-9--9--7--7--5-|

e-----------------|                   e-------------|
b-----------------|                   b-------------|
g-7-7-7-7-7-7-7-7-|    Play 3 times   g-11-11-9--9--|
d-4-4-4-7-7-7-7-7-|                   d-12-12-11-11-|
a-0-0-0-5-5-5-5-5-|                   a-9--9--7--7--|
d-0-0-0-5-5-5-5-5-|                   d-9--9--7--7--|

Dreamy drifting scenes of the night, changing every day,
Every night your affectionate smile will be my milky way.
Daylight waned as the moon began to shine. We were sailing there in heaven's height,
For nothing else can demur our love's everlasting light.

Pre-chorus:

Guitar 1:

e-----------------------|                   
b-----------------------|                   
g-7-7-7-7-7-9-9-9-9-9-9-|    Play 2 times   
d-7-7-7-7-7-7-7-7-7-7-7-|                  
a-5-5-5-5-5-7-7-7-7-7-7-|                   
d-5-5-5-5-5-7-7-7-7-7-7-| 
                  
We'll sleep with clouds as pillows, maybe steal an angel's wings,
We'll grab onto a meteor and soar across each drifting scene.

Chorus:

Guitar 1:

e---------------------------------|
b---------------------------------|
g-7-7-7-7-------------------------|    Play 4 times
d-7-7-7-7-7-7-7-7-5-5-5-5-7-7-7-7-|
a-5-5-5-5-7-7-7-7-5-5-5-5-7-7-7-7-|
d---------7-7-7-7-5-5-5-5-7-7-7-7-|

I promise you there'll be no tomorrow,
Because this moment will always last.
And because this moment is forever,
There's no longing for the past.

Verse 2: 

Guitar 1:

e-----------------|                   e---------------------|
b-----------------|                   b---------------------|
g-7-7-7-7-7-7-7-7-|    Play 2 times   g-7-7-7-11-11-9--9--7-|
d-4-4-4-7-7-7-7-7-|                   d-4-4-4-12-12-11-11-7-|
a-0-0-0-5-5-5-5-5-|                   a-0-0-0-9--9--7--7--5-|
d-0-0-0-5-5-5-5-5-|                   d-0-0-0-9--9--7--7--5-|

e-----------------|                   e-------------|
b-----------------|                   b-------------|
g-7-7-7-7-7-7-7-7-|    Play 3 times   g-11-11-9--9--|
d-4-4-4-7-7-7-7-7-|                   d-12-12-11-11-|
a-0-0-0-5-5-5-5-5-|                   a-9--9--7--7--|
d-0-0-0-5-5-5-5-5-|                   d-9--9--7--7--|

For nothing else can demur our love's everlasting light.
We'll sleep with clouds as pillows, maybe steal an angel's wings,
We'll grab onto a meteor and soar across each drifting scene.

Pre-chorus:

Guitar 1:

e-----------------------|                   
b-----------------------|                   
g-7-7-7-7-7-9-9-9-9-9-9-|    Play 2 times   
d-7-7-7-7-7-7-7-7-7-7-7-|                  
a-5-5-5-5-5-7-7-7-7-7-7-|                   
d-5-5-5-5-5-7-7-7-7-7-7-| 

Chorus:

Guitar 1:

e---------------------------------|
b---------------------------------|
g-7-7-7-7-------------------------|    Play 4 times
d-7-7-7-7-7-7-7-7-5-5-5-5-7-7-7-7-|
a-5-5-5-5-7-7-7-7-5-5-5-5-7-7-7-7-|
d---------7-7-7-7-5-5-5-5-7-7-7-7-|

I promise you there'll be no tomorrow,
Because this moment will always last.
And because this moment is forever,
There's no longing for the past.

Bridge:

e---------------------|
b---------------------|
g-11-11-9--9--9-9-7-7-|    Play 2 times
d-12-12-11-11-7-7-7-7-|
a-9--9--7--7--7-7-5-5-|
d-9--9--7--7--7-7-5-5-|

Chorus:

Guitar 1:

e---------------------------------|
b---------------------------------|
g-7-7-7-7-------------------------|    Play 4 times
d-7-7-7-7-7-7-7-7-5-5-5-5-7-7-7-7-|
a-5-5-5-5-7-7-7-7-5-5-5-5-7-7-7-7-|
d---------7-7-7-7-5-5-5-5-7-7-7-7-|

I promise you there'll be no tomorrow,
Because this moment will always last.
And because this moment is forever,
There's no longing for the past.

Outro:

Guitar 1:

e-----------------|                   e-------------------------------------------|
b-----------------|                   b-------------------------------------------|
g-7-7-7-7-7-7-7-7-|    Play 2 times   g-7-7-7-11-11-9--9------11--------9---------|
d-4-4-4-7-7-7-7-7-|                   d-4-4-4-12-12-11-11--------12-------11-9-12-|
a-0-0-0-5-5-5-5-5-|                   a-0-0-0-9--9--7--7----9---------7-----------|
d-0-0-0-5-5-5-5-5-|                   d-0-0-0-9--9--7--7--9---------7-------------|


 
 
Misc Unsigned Bands - Eternal Licks - The Waning Light Chords :: indexed at Ultimate Guitar.
Eternal Licks - The Waning Light tabs @ 911Tabs

Quick tip, so you can enjoy Eternal Licks - The Waning Light Chords even more:

You might want to transpose the song if it is too high or too low for you to sing. Just click the desired option while playing a song and all the chords will automatically be transponded into a new key.

Show us your talent, perform Eternal Licks - The Waning Light Chords!

Here you can post a video or audio performance. Tell me more ...
Where can we find your performance? Tell me more ...
Your comment:
Please, log in to post your performance.