Artists by letter: A B C D E F G H I J K L M N O P Q R S T U V W X Y Z 0-9

Degage Adolecence - Not Easy Love Tab - Misc Unsigned Bands


 
Degage Adolecence - Not Easy Love Tab
INTRO|X3
e|--------------------------------------------------------------|
B|--------------------------------------------------------------|PLAY THIS 3RD TIME
G|--------------------------------------------------------------|
D|----------------------------------------5--XX-5-X-5-----------|
A|-9---7------5--5S9----9-----7--------5--5--XX-5-X-5-----------|
E|7-7-5-5-3--3-33------7-7/5-5-5/3-3--3-333--XX-3-X-3-----------|
VERSE
e|-------------------|
G|-------------------|
B|-------------------|
G|-------------------|
D|99-XXX-55--5--5-55-|
A|99-XXX-55--5--5-55-|
E|77-XXX-77--3-3-3---|
Chorus
e|77-7-55-5-22-2-3-2--2-2-2----------------|
B|8--8-5--5-33-----3--3---3----------------|
G|9-9--6--6-44--4--2-2-2-2-----------------|
D|9------7--44-----------------------------|
A|-----------------------------------------|
E|-----------------------------------------|

 
 
Misc Unsigned Bands - Degage Adolecence - Not Easy Love Tab :: indexed at Ultimate Guitar.
Degage Adolecence - Not Easy Love tabs @ 911Tabs

Quick tip, so you can enjoy Degage Adolecence - Not Easy Love Tab even more:

After the registration (which takes just 10 seconds, remember?) you will be able to use your profile - your very own piece of YourChords.com.

Show us your talent, perform Degage Adolecence - Not Easy Love Tab!

Here you can post a video or audio performance. Tell me more ...
Where can we find your performance? Tell me more ...
Your comment:
Please, log in to post your performance.