Artists by letter: A B C D E F G H I J K L M N O P Q R S T U V W X Y Z 0-9

 
Coverdale-page - Pride And Joy Tab
Pride and Joy
By Coverdale-Page
Tuning: Standard
e|---------5P--7M--8A---------------------|
B|-------------7I-------------------------|
G|-------------7I-------------------------|
D|----------------------------------------|
A|----------------------------------------|
E|----------------------------------------|

To play the riff, simply lift and replace your 3rd and 4th fingers on the e string as
noted.
MAIN RIFF
                          |play 6x|
    v                           v
e||-8-8-8-7--5--7--5--7--8-8-8-|8-8-8-7--5--7--5-5-5-5-5-5-5--|
B||-7-7-7-7--7--7--7--7--7-7-7-|7-7-7-7--7--7--7-7-7-7-7-7-7--|
G||-7-7-7-7--7--7--7--7--7-7-7-|7-7-7-7--7--7--7-7-7-7-7-7-7-o|
D||-0--------------------------|0----------------------------o|
A||-0--------------------------|0-----------------------------|
E||-X--------------------------|X-----------------------------|

   v              v       v        v           v      v            v   v
e|-5-5-5-5-5--5---3-3-3---8--8-|10-10-10-10-10--10-10--10-10-10-10--10-|
B|-5-5-5-5-5--5---3-3-3---7--7-|10-10-10-10-10--10-10--10-10-10-10--10-|
G|-6-6-6-6-6--6---4-4-4---7--7-|11-11-11-11-11--11-11--11-11-11-11--11-|
D|-----------------------------|---------------------------------------|
A|-----------------------------|---------------------------------------|
E|-----------------------------|---------------------------------------|

   v              v       v         v(let ring)
e|-5-5-5-5-5--5---3-3-3---8-8-8---|-10--------------------|
B|-5-5-5-5-5--5---3-3-3---7-7-7---|-10--------------------|
G|-6-6-6-6-6--6---4-4-4---7-7-7---|-11--------------------|
D|--------------------------------|-----------------------|
A|--------------------------------|-----------------------|
E|--------------------------------|-----------------------|

                        |play 3x|
                     v  v  v                       v
e|---------------|-------------------------------|-----------------------|
B|---------------|-------------------------------|-----------------------|
G|---------------|-o----------------------------o|-----------------------|
D|---------------|-o-7---7---7------------------o|-7-7-7-----------------|
A|-------3-------|---7---7---7----------3--------|-7-7-7---------3-------|
E|-0h3h5---5p3h5-|---5---5---5----0h3h5---5p3h5--|-5-5-5---0h3h5---5p3h5-|

           |play 7x|
     v   v   v
e|-------------------------------|---------------------|
B|-------------------------------|---------------------|
G|-o----------------------------o|---------------------|
D|-o-7---7---7------------------o|-7-7-7-7---7-7-7-7---|
A|---7---7---7----------3--------|-7-7-7-7---7-7-7-7---|
E|---5---5---5----0h3h5---5p3h5--|-5-5-5-5---5-5-5-5---|

                   |play 3x|
        v               v              v  v         v
e|---------------------------------------|-------------------------------|
B|---------------------------------------|-------------------------------|
G|o-13/14-14-13-14-13/14-14-13-14-77--7-o|--13/14-14-13-14---------------|
D|o-11/12-12-11-12-11/12-12-11-12-77--7-o|--11/12-12-11-12---------------|
A|--------------------------------55--5--|-----------------------3-------|
E|---------------------------------------|--------------------h5---5p3h5-|

            |play 7x|
     v   v   v
e|-------------------------------|----------------------|
B|-------------------------------|----------------------|
G|-o----------------------------o|----------------------|
D|-o-7---7---7------------------o|-7-7-7-7---7-7-7-7----|
A|---7---7---7----------3--------|-7-7-7-7---7-7-7-7----|
E|---5---5---5----0h3h5---5p3h5--|-5-5-5-5---5-5-5-5----|

                          |play 4x|
    v                           v
e|--8-8-8-7--5--7--5--7--8-8-8-|8-8-8-7--5--7--5-5-5-5-5-5-5--|
B|--7-7-7-7--7--7--7--7--7-7-7-|7-7-7-7--7--7--7-7-7-7-7-7-7--|
G|o-7-7-7-7--7--7--7--7--7-7-7-|7-7-7-7--7--7--7-7-7-7-7-7-7-o|
D|o-0--------------------------|0----------------------------o|
A|--0--------------------------|0-----------------------------|
E|--X--------------------------|X-----------------------------|

   v              v       v        v           v      v            v   v
e|-5-5-5-5-5--5---3-3-3---8--8----|10-10-10-10-10--10-10--10-10-10-10--10-|
B|-5-5-5-5-5--5---3-3-3---7--7----|10-10-10-10-10--10-10--10-10-10-10--10-|
G|-6-6-6-6-6--6---4-4-4---7--7----|11-11-11-11-11--11-11--11-11-11-11--11-|
D|--------------------------------|---------------------------------------|
A|--------------------------------|---------------------------------------|
E|--------------------------------|---------------------------------------|

   v              v       v         v
e|-5-5-5-5-5--5-3-3-3---8-8-8---|-10----------------------------------------|
B|-5-5-5-5-5--5-3-3-3---7-7-7---|-10----------------------------------------|
G|-6-6-6-6-6--6-4-4-4---7-7-7---|-11-13/14-14-13-14--13/14-14-13-14---------|
D|------------------------------|----11/12-12-11-12--11/12-12-11-12---77-7--|
A|------------------------------|-------------------------------------77-7--|
E|------------------------------|-------------------------------------55-5--|


                   |play 2x|
        v               v              v  v         v
e|-----------------------------------------|--------------------------------|
B|-----------------------------------------|--------------------------------|
G|-13/14-14-13-14--13/14-14-13-14---77--7-o|--13/14-14-13-14----------------|
D|-11/12-12-11-12--11/12-12-11-12---77--7-o|--11/12-12-11-12----------------|
A|----------------------------------55--5--|------------------------3-------|
E|-----------------------------------------|------------------0h3h5---5p3h5-|


            |play 4x|
     v   v   v                     v   v   v     v
e|-------------------------------|------------------|
B|-------------------------------|------------------|
G|-o----------------------------o|------------------|
D|-o-7---7---7------------------o|-7---7---7-----8--|
A|---7---7---7----------3--------|-7---7---7-----8--|
E|---5---5---5----0h3h5---5p3h5--|-5---5---5-----6--|

   v   v   v                    v   v   v     v
e|----------------------------|------------------------------|
B|----------------------------|------------------------------|
G|----------------------------|--------------------------5---|
D|-7---7---7------------------|-7---7---7-----8--------------|
A|-7---7---7----------3-------|-7---7---7-----8----0h3h5---5-|
E|-5---5---5----0h3h5---5p3h5-|-5---5---5-----6--------------|

         |play 2x|
    v   v   v                 v   v   v
e|--------------------------|---------5----|
B|--------------------------|---------7----|
G|o-5---3---2----------5---o|-5---3---7----|
D|o-5---3---2--------------o|-5---3---7----|
A|--3---1---0----0h3h5---5--|-3---1---5----|
E|--------------------------|---------X----|
                                      ?
                           |Main Riff starts again here|

                          |play 6x|
   v                           v
e|-8-8-8-7--5--7--5--7--8-8-8-|8-8-8-7--5--7--5-5-5-5-5-5-5--|
B|-7-7-7-7--7--7--7--7--7-7-7-|7-7-7-7--7--7--7-7-7-7-7-7-7--|
G|-7-7-7-7--7--7--7--7--7-7-7-|7-7-7-7--7--7--7-7-7-7-7-7-7-o|
D|-0--------------------------|0----------------------------o|
A|-0--------------------------|0-----------------------------|
E|-X--------------------------|X-----------------------------|

                                |play 3x|
    v              v       v        v           v      v            v   v
e|--5-5-5-5-5--5---3-3-3---8--8----|10-10-10-10-10--10-10--10-10-10-10--10|
B|--5-5-5-5-5--5---3-3-3---7--7----|10-10-10-10-10--10-10--10-10-10-10--10|
G|o-6-6-6-6-6--6---4-4-4---7--7----|11-11-11-11-11--11-11--11-11-11-11--11|
D|o--------------------------------|--------------------------------------|
A|---------------------------------|--------------------------------------|
E|---------------------------------|--------------------------------------|

               v   v   v                                  v
e|--------------------5----------------|------------|---------------------|
B|--------------------7----------------|------------|---------------------|
G|-------5-----5---3--7--------5-------|------------|---------------------|
D|-------------5---3--7----------------|-77---7--8--|7--7---7--7/8-7/87--|
A|-0h3h5---5---3---1--5--0h3h5---5p3h5-|-77---7--8--|7--7---7--7/8-7/87--|
E|--------------------X----------------|-55---5--6--|5--5---5--5/6-5/65--|

                v     vvvv
e|-----------------------------||
B|-----------------------------||
G|-----------------------------||
D|-7---7---7----8-----7777-----||
A|-7---7---7----8-----7777-----||
E|-5---5---5----6-----5555-----||


Lyrics:
  Take me to your river, baby, take me to your sea
Purify my soul an' pour your ocean over me
Lead me to your chamber, where you sleep at night
Scratch your name across my back, make me feel alright
You're the best time I have ever had
You look so good, oh babe, you must be bad
Diamonds on your ankles, sapphires on your shoes
Your little gems of wisdom chase away my blues
Mama's little princess, daddy's pride and joy
I'm like a kid at Christmas, playing with your toys
You shake me in the morning, I wake up black an' blue
Ooh child, you act so wild, I'll name a hurricane after you
Scarlet fever kisses, little miss Dynamite
Youngblood, you look so good, I'm gonna leave on all the lights
So I can see where I'm goin', baby
(Solo)
So take me to your river, baby, take me to your sea
Purify my soul an' pour your ocean over me
Lead me to your chamber, where you sleep at night
Scratch your name across my back, make me feel alright
I have never felt this good before
If you want I'll sleep outside your door
You're the best time I have ever had
You look so good, oh babe, you must be bad
You must be bad

 
 
Misc Unsigned Bands - Coverdale-page - Pride And Joy Tab :: indexed at Ultimate Guitar.
Coverdale-page - Pride And Joy tabs @ 911Tabs

Quick tip, so you can enjoy Coverdale-page - Pride And Joy Tab even more:

If you don't really know how to deal with "Absus4" chord and his equally confusing brothers, just put the mouse cursor over them and you will be shown a helpful chord diagram.

Show us your talent, perform Coverdale-page - Pride And Joy Tab!

Here you can post a video or audio performance. Tell me more ...
Where can we find your performance? Tell me more ...
Your comment:
Please, log in to post your performance.