Artists by letter: A B C D E F G H I J K L M N O P Q R S T U V W X Y Z 0-9

 
Celeritas - Glasshouse Tab
-------------------------------------------------------------------------------
			     Glasshouse - Celeritas
-------------------------------------------------------------------------------
Tabbed by: seeneyj
Email: [email protected]

Tuning: Standard Tuning

Intro: Guitar One

e|-------------------------------------------------------------------------------|
B|-------------------------------------------------------------------------------|
G|-------------------------------------------------------------------------------|
D|0---0---0-------0---0---0------------------------------------------------------|
A|0---0---0-------0---0---0------------------------------------------------------|
E|0---0---0-------0---0---0----- X2 ---------------------------------------------|

e|-------------------------------------------------------------------------------|
B|-------------------------------------------------------------------------------|
G|-------------------------------------------------------------------------------|
D|0---0---0-------0---0---0------------------------------------------------------|
A|0---0---0-------0---0---0------------------------------------------------------|
E|0---0---0-------0---0---0----- X2 ---------------------------------------------|

Verse: Guitar One
e|-------------------------------------------------------------------------------|
B|-------------------------------------------------------------------------------|
G|-------------------------------------------------------------------------------|
D|0---0---0-------0---0---0------------------------------------------------------|
A|0---0---0-------0---0---0------------------------------------------------------|
E|0---0---0-------0---0---0----- X4 ---------------------------------------------|

Chorus: Guitar One

e|------------------------------------------------------------------------------|
B|------------------------------------------------------------------------------|
G|------------------------------------------------------------------------------|
D|------------------------------------------------------------------------------|
A|2-2-2-2-5-5-5-5-7-7---7--7-7-7------------------------------------------------|
E|0-0-0-0-3-3-3-3-5-5---5--5-5-5-----X4-----------------------------------------|

Guitar Two: Verse and Intro

e|-------------------------------------------------------------------------------|
B|-------------------------------------------------------------------------------|
G|-------------------------------------------------------------------------------|
D|-------------------------------------------------------------------------------|
A|2------------------------------------------------------------------------------|
E|0---0---3-0-0---5-0-0----X8----------------------------------------------------|

Guitar Two: Chorus

e|------------------------------------------------------------------------------|
B|------------------------------------------------------------------------------|
G|------------------------------------------------------------------------------|
D|------------------------------------------------------------------------------|
A|2-2-2-2-5-5-5-5-7-7---7--7-7-7------------------------------------------------|
E|0-0-0-0-3-3-3-3-5-5---5--5-5-5-----X4-----------------------------------------|

Solo:

e|------------------------------------------------------------------------------|
B|------------------------------------------------------------------------------|
G|14b16---16rb14-12---------14b16rb14-12-14---12--14--14b16rb14--12-------------|
D|------------------14---------------------------------------------14-----------|
A|------------------------------------------------------------------------------|
E|------------------------------------------------------------------------------|

e|----12----15p12-------15p12-------15p12-------15p12---------15----12----------|
B|/15-------------15p12-------15p12-------15p12-------15p12---------------------|
G|------------------------------------------------------------------------------|
D|------------------------------------------------------------------------------|
A|------------------------------------------------------------------------------|
E|------------------------------------------------------------------------------|
                                                         ---3-------------------|
                                                        |                 |
e|---12-15-17-22-24------19p17p15--17---15---12--------------------------------|
B|15---------------------------------------------------------------------------|
G|-----------------------------------------------------------------------------|
D|-----------------------------------------------------------------------------|
A|-----------------------------------------------------------------------------|
E|-----------------------------------------------------------------------------|

e|15--12----------------------------------------------------12-12-12--------------|
B|--------15--12------------------------------------12--15------------------------|
G|---------------14--12------12--14b16rb14--12--14--------------------------------|
D|-----------------------14-------------------------------------------------------|
A|--------------------------------------------------------------------------------|
E|--------------------------------------------------------------------------------|

e|-----------------------------------------------------------------------------|
B|15-17-15-17-15-17-15-17--151715-17---151715-17----12-------------------------|
G|-----------------------------------------------------14--12--14b16br14-------|
D|-----------------------------------------------------------------------------|
A|-----------------------------------------------------------------------------|
E|-----------------------------------------------------------------------------|

e|-----------------12-12-12-----15--12-----------------------------------------------|
B|---------12--15-----------------------15--12---------------------------------------|
G|-12--14--------------------------------------14--12--------------------------------|
D|-----------------------------------------------------14--12-------------------14---|
A|-------------------------------------------------------------14---12----------14---|
E|----------------------------------------------------------------------15--12--12---|

| /  slide up
|   slide down
| h  hammer-on
| p  pull-off
| ~  vibrato
| +  harmonic
| x  Mute note
| b Bend
| rb Reverse bend
===============================================================================

 
 
Misc Unsigned Bands - Celeritas - Glasshouse Tab :: indexed at Ultimate Guitar.
Celeritas - Glasshouse tabs @ 911Tabs

Quick tip, so you can enjoy Celeritas - Glasshouse Tab even more:

You might want to transpose the song if it is too high or too low for you to sing. Just click the desired option while playing a song and all the chords will automatically be transponded into a new key.

Show us your talent, perform Celeritas - Glasshouse Tab!

Here you can post a video or audio performance. Tell me more ...
Where can we find your performance? Tell me more ...
Your comment:
Please, log in to post your performance.