Artists by letter: A B C D E F G H I J K L M N O P Q R S T U V W X Y Z 0-9

 
Camp Rock Cast - We Rock Tab
Hi There, I didn't see any correct versions of this tab so i'm sure my version is
right! Here it is:

Tuning: Standard
Contact: [email protected]

There is no guitar intro, It goes straight to the verse


Verse:
e|----------------------------------------|
B|----------------------------------------|
G|---6---66-6--6-4---44-------------------|
D|---6---66-6--6-4---44----4---44---------| x2
A|---4---44-4--4-2---22----4---44---------|
E|-------------------------2---22---------|

e|----------------------------------------------|
B|----------------------------------------------|
G|---6---66-6--6-4---44--------------2---22-----|
D|---6---66-6--6-4---44----4---44----2---22-----|
A|---4---44-4--4-2---22----4---44----0---00-----|
E|-------------------------2---22---------------|

e|---------------------------------------------------------|
B|---------------------------------------------------------|
G|---6---66-6--6-4---44------------------------------------|
D|---6---66-6--6-4---44----4---44----6--6-6-6-6-6-6-6------|
A|---4---44-4--4-2---22----4---44----6--6-6-6-6-6-6-6------|
E|-------------------------2---22----4--4-4-4-4-4-4-4------|


Chorus: Part One
e|---------------------------------------------|
B|---------------------------------------------|
G|-----------11-11-11----6-6-6-----------------|
D|--8-8-8----11-11-11----6-6-6----6-6-6-6------| x5
A|--8-8-8----9--9--9-----4-4-4----6-6-6-6------|
E|--6-6-6-------------------------4-4-4-4------|

Chorus: Part Two
e|-----------------------------------------------|
B|-----------------------------------------------|
G|---------------------11-11-11-11-11-11-11-11---|                     
D|--8-8-8-8-8-8-8-8----11-11-11-11-11-11-11-11---|                  
A|--8-8-8-8-8-8-8-8----9--9--9--9--9--9--9--9----|                           
E|--6-6-6-6-6-6-6-6------------------------------|


Post Chorus:
e|----------------------------------------|
B|----------------------------------------|
G|---6---66-6--6-4---44-------------------|
D|---6---66-6--6-4---44----4---44---------| x2
A|---4---44-4--4-2---22----4---44---------|
E|-------------------------2---22---------|


Verse 2:
e|----------------------------------------|
B|----------------------------------------|
G|---6---66-6--6-4---44-------------------|
D|---6---66-6--6-4---44----4---44---------| x2
A|---4---44-4--4-2---22----4---44---------|
E|-------------------------2---22---------|

e|----------------------------------------------|
B|----------------------------------------------|
G|---6---66-6--6-4---44--------------2---22-----|
D|---6---66-6--6-4---44----4---44----2---22-----|
A|---4---44-4--4-2---22----4---44----0---00-----|
E|-------------------------2---22---------------|

e|---------------------------------------------------------|
B|---------------------------------------------------------|
G|---6---66-6--6-4---44------------------------------------|
D|---6---66-6--6-4---44----4---44----6--6-6-6-6-6-6-6------|
A|---4---44-4--4-2---22----4---44----6--6-6-6-6-6-6-6------|
E|-------------------------2---22----4--4-4-4-4-4-4-4------|


Chorus: Part One
e|---------------------------------------------|
B|---------------------------------------------|
G|-----------11-11-11----6-6-6-----------------|
D|--8-8-8----11-11-11----6-6-6----6-6-6-6------| x5
A|--8-8-8----9--9--9-----4-4-4----6-6-6-6------|
E|--6-6-6-------------------------4-4-4-4------|

Chorus: Part Two
e|-----------------------------------------------|
B|-----------------------------------------------|
G|---------------------11-11-11-11-11-11-11-11---|                     
D|--8-8-8-8-8-8-8-8----11-11-11-11-11-11-11-11---|                  
A|--8-8-8-8-8-8-8-8----9--9--9--9--9--9--9--9----|                           
E|--6-6-6-6-6-6-6-6------------------------------|

Then it's the bridge, You can just play this with it though:
e|---------|
B|---------|
G|--6-6----|
D|--6-6----|
A|--4-4----|
E|---------|

Then play:
Chorus (Part 1) x2
Chorus {Part 2) x1

..and that's the song finished.

 
 
Misc Unsigned Bands - Camp Rock Cast - We Rock Tab :: indexed at Ultimate Guitar.
Camp Rock Cast - We Rock tabs @ 911Tabs

Quick tip, so you can enjoy Camp Rock Cast - We Rock Tab even more:

If you don't really know how to deal with "Absus4" chord and his equally confusing brothers, just put the mouse cursor over them and you will be shown a helpful chord diagram.

Show us your talent, perform Camp Rock Cast - We Rock Tab!

Here you can post a video or audio performance. Tell me more ...
Where can we find your performance? Tell me more ...
Your comment:
Please, log in to post your performance.