Artists by letter: A B C D E F G H I J K L M N O P Q R S T U V W X Y Z 0-9

Bier Kampf - Non Ti Fermeranno Mai Tab - Misc Unsigned Bands


 
Bier Kampf - Non Ti Fermeranno Mai Tab
Bier Kampf - Non ti fermeranno mai
 
Guitar, standard tuning

Intro:

e|------------------------------------------------|
B|------------------------------------------------|
G|------------------------------------------------|
D|-------8---8--------8---8--4----4---4--6---6----|
A|---8-----8------8-----8----4--4---4----6-6------|
E|-6---6--------6---6--------2-----------4--------|


e|------------------------------------------------|
B|------------------------------------------------|
G|------------------------------------------------|
D|-x-x-x-x--8----8---8--8----8---8--4----4---4----|
A|-x-x-x-x--8--8---8----8--8---8----4--4---4------|
E|-x-x-x-x--6-----------6-----------2-------------|


e|----------------------------------------------------|
B|----------------------------------------------------|
G|----------------------------------------------------|
D|-8-8-x-x-x-x-6-6-8-8-x-x-x-x--8-8----8--8-8----8----|
A|-8-8-x-x-x-x-6-6-8-8-x-x-x-x--8-8--8----8-8--8------|
E|-6-6-x-x-x-x-4-4-6-6-x-x-x-x--6-6-------6-6---------|


e|---------------------------|
B|---------------------------|
G|---------------------------|
D|-4-4-4--4-4--6-6-6--6-6----|
A|-4-4-4--4-4--6-6-6--6-6----|
E|-2-2-2--2-2--4-4-4--4-4----|

Semi-intro (X2):

"Oooi!"

    PM|     PM|     PM|     PM|
e|-----------------------------------------------------------|
B|-----------------------------------------------------------|
G|-----------------------------------------------------------|
D|--8-8--8--8-8--8--8-8--8--8-8--8---4-4-4--4-4--6-6-6--6-6--|
A|--8-8--8--8-8--8--8-8--8--8-8--8---4-4-4--4-4--6-6-6--6-6--|
E|--6-6--6--6-6--6--6-6--6--6-6--6---2-2-2--2-2--4-4-4--4-4--|

Verse (X4):

"Sei cresciuto in palazzi popolari..."

    PM-------------------------|
                                                           
e|---------------------------------------------------------|
B|---------------------------------------------------------|
G|---------------------------------------------------------|
D|--------------------------------4-4-4-4-4--6-6-6-6-6-----|
A|--8-6------------8-6------------4-4-4-4-4--6-6-6-6-6-----|
E|------9-8-6-4-4------9-8-6-4-4--2-2-2-2-2--4-4-4-4-4-----|

Chorus (X2):

"Non ti fermeranno, non ti piegheranno mai..."

e|-------------------------------------------------------|
B|-------------------------------------------------------|
G|--3-3-3-36----3-3-3-36-------------------------------|
D|--3-3-3-36-6--3-3-3-36-6--6--4-4-4-4-4--6-6-6-6-6----|
A|--1-1-1-14-6--1-1-1-14-6--6--4-4-4-4-4--6-6-6-6-6----|
E|------------4------------4--4--2-2-2-2-2--4-4-4-4-4----|


|-----------------------------------------------------------|
|-----------------------------------------------------------|
|-3-3-3-36----3-3--3-36------------------6-6-6-6-6-6-6-6--|
|-3-3-3-36-6--3-3--3-36-6--6--4-4-4-4-4--6-6-6-6-6-6-6-6--|
|-1-1-1-14-6--1-1--1-14-6--6--4-4-4-4-4--4-4-4-4-4-4-4-4--|
|-----------4-------------4--4--2-2-2-2-2-------------------|

Interlude (X2):

e|----------------------------------------------------|
B|----------------------------------------------------|
G|----------------------------------------------------|
D|--8--x-x-x-x--8--x-x-x-x--4-4-4-4-4--6-6-6-6-6------|
A|--8--x-x-x-x--8--x-x-x-x--4-4-4-4-4--6-6-6-6-6------|
E|--6--x-x-x-x--6--x-x-x-x--2-2-2-2-2--4-4-4-4-4------|

Verse X4

Chorus X2

"Outro" (X2): 

e|-------------------------------------------------------|
B|-------------------------------------------------------|
G|-------------------------------------6-6-6-6-6-6-6-6---|
D|--8--x-x-x-x--8--x-x-x-x--4-4-4-4-4--6-6-6-6-6-6-6-6---|
A|--8--x-x-x-x--8--x-x-x-x--4-4-4-4-4--4-4-4-4-4-4-4-4---|
E|--6--x-x-x-x--6--x-x-x-x--2-2-2-2-2--------------------|

Chorus


 
 
Misc Unsigned Bands - Bier Kampf - Non Ti Fermeranno Mai Tab :: indexed at Ultimate Guitar.
Bier Kampf - Non Ti Fermeranno Mai tabs @ 911Tabs

Quick tip, so you can enjoy Bier Kampf - Non Ti Fermeranno Mai Tab even more:

You might want to transpose the song if it is too high or too low for you to sing. Just click the desired option while playing a song and all the chords will automatically be transponded into a new key.

Show us your talent, perform Bier Kampf - Non Ti Fermeranno Mai Tab!

Here you can post a video or audio performance. Tell me more ...
Where can we find your performance? Tell me more ...
Your comment:
Please, log in to post your performance.