Artists by letter: A B C D E F G H I J K L M N O P Q R S T U V W X Y Z 0-9

 
Bears Eat Me - Blindfold Rhythm Tab
BEARS EAT ME
BLINDFOLD
RHYTHM GUITAR
DROP D

(possibly different than recording)

BASS INTRO 2x
INTRO 4x
DRUM CLICKS 8x
VERSE RIFF 3x (THE FIRST TIME, RHYTHM DOESN'T PLAY ANYTHING, SO IT'S JUST 3)
VERSE1 PART1 2x
VERSE1 PART2 2x
BUILD UP1 1x
CHORUS 2x       (SAME AS INTRO BUT TWICE AS FAST)
VERSE2 PART1 2x (SAME AS VERSE1 PART1)
VERSE2 PART2 2x (SAME AS VERSE1 PART2)
INTERLUDE 4x
BUILD UP2 PART1 1x
BUILD UP2 PART2 1x
CHORUS 2x
OUTRO 2x        (SAME AS CHORUS BUT WITH YOUR OWN STRUM PATTERN)

INTRO 4x
|----------------------------------------------------------------|
|----------------------------------------------------------------|
|----------------------------------------------------------------|
|7-7-7-7-7-7-7-7-101010101010101012121212121212121010101010101010|
|5-5-5-5-5-5-5-5-8-8-8-8-8-8-8-8-10101010101010108-8-8-8-8-8-8-8-|
|----------------------------------------------------------------|

VERSE RIFF 3x (WHEN WHOLE BAND JOINS IN PLAY THIS IN THIS ORDER)
|--------------------------------|
|--------------------------------|
|--------------------------------|
|------------------------5-------|
|55558-7-55558-7-55558-7---8-7-5-|
|--------------------------------|

|--------------------------------|
|--------------------------------|
|--------------------------------|
|------------------------5-------|
|55558-7-55558-7-55558-7---8-7-8-|
|--------------------------------|ONLY DIFFERENCE IS THE LAST NOTE

|--------------------------------|
|--------------------------------|
|--------------------------------|
|------------------------5-------|
|55558-7-55558-7-55558-7---8-7-5-|
|--------------------------------|

VERSE1 PART1 2x
|----------------------------------------------------------------|
|----------------------------------------------------------------|
|----------------------------------------------------------------|
|7-7-7-7-7-7-7-7-7-7-7-7-10109-9-1010101010101010101010104-/-5---|
|5-5-5-5-5-5-5-5-5-5-5-5-8-8-7-7-8-8-8-8-8-8-8-8-8-8-8-8-2-/-3---|
|----------------------------------------------------------------|

VERSE1 PART2 2x
|--------------------------------|
|--------------------------------|
|--------------------------------|
|--------------------------------|
|5---5---5---8-7-8---8---8---2/3-|
|--0---0---0-------0---0---0-----|
        PALM MUTE ALL 0's

BUILD UP1 1x
|----------------------------------------------------------------|
|----------------------------------------------------------------|
|----------------------------------------------------------------|
|00000-----------22222-----------33333----------------55555555555|
|00000-----------22222-----------33333----------------55555555555|
|00000-----------22222-----------33333----------------55555555555|
    GET DOWN BOOGEY WIT IT

CHORUS 2x (PLAY TWICE AS FAST AS THIS, I WAS UNABLE TO TYPE IT)
|----------------------------------------------------------------|
|----------------------------------------------------------------|
|----------------------------------------------------------------|
|7-7-7-7-7-7-7-7-101010101010101012121212121212121010101010101010|
|5-5-5-5-5-5-5-5-8-8-8-8-8-8-8-8-10101010101010108-8-8-8-8-8-8-8-|
|----------------------------------------------------------------|

VERSE2 PART1 2x
|----------------------------------------------------------------|
|----------------------------------------------------------------|
|----------------------------------------------------------------|
|7-7-7-7-7-7-7-7-7-7-7-7-10109-9-1010101010101010101010104-/-5---|
|5-5-5-5-5-5-5-5-5-5-5-5-8-8-7-7-8-8-8-8-8-8-8-8-8-8-8-8-2-/-3---|
|----------------------------------------------------------------|

VERSE2 PART2 2x
|--------------------------------|
|--------------------------------|
|--------------------------------|
|--------------------------------|
|5---5---5---8-7-8---8---8---2/3-|
|--0---0---0-------0---0---0-----|
        PALM MUTE ALL 0's

INTERLUDE 4x
|--------------------------------|
|--------------------------------|
|--------------------------------|
|0~~~~~~~~~~~~~~~0-0-------------|
|0~~~~~~~~~~~~~~~0-0-------------|
|0~~~~~~~~~~~~~~~0-0-------------|
 RING OUT        PM

BUILD UP2 PART1 1x
|----------------------------------------------------------------|
|----------------------------------------------------------------|
|----------------------------------------------------------------|
|9-9-9-9-9-9-9-9-10101010101010104-4-4-4-4-4-4-4-5-5-5-5-5-5-5-5-|
|7-7-7-7-7-7-7-7-8-8-8-8-8-8-8-8-2-2-2-2-2-2-2-2-3-3-3-3-3-3-3-3-|
|----------------------------------------------------------------|

BUILD UP2 PART1 1x
|--------------------------------|
|--------------------------------|
|--------------------------------|
|7-7-7-7-7-7-7-7-7-7-7-7-7-7-----|
|5-5-5-5-5-5-5-5-5-5-5-5-5-5-----|
|---------------------------10/|
                    SLIDE UP THEN DOWN

CHORUS 2x (PLAY TWICE AS FAST AS THIS, I WAS UNABLE TO TYPE IT)
|----------------------------------------------------------------|
|----------------------------------------------------------------|
|----------------------------------------------------------------|
|7-7-7-7-7-7-7-7-101010101010101012121212121212121010101010101010|
|5-5-5-5-5-5-5-5-8-8-8-8-8-8-8-8-10101010101010108-8-8-8-8-8-8-8-|
|----------------------------------------------------------------|

OUTRO 2x (WHATEVER STRUM PATTERN YOU WANT)
|----------------------------------------------------------------|
|----------------------------------------------------------------|
|----------------------------------------------------------------|
|7-7-7-7-7-7-7-7-101010101010101012121212121212121010101010101010|
|5-5-5-5-5-5-5-5-8-8-8-8-8-8-8-8-10101010101010108-8-8-8-8-8-8-8-|
|----------------------------------------------------------------|

END WITH A POWER CHORD ON THE 5th FRET OF THE A-STRING

 
 
Misc Unsigned Bands - Bears Eat Me - Blindfold Rhythm Tab :: indexed at Ultimate Guitar.
Bears Eat Me - Blindfold Rhythm tabs @ 911Tabs

Quick tip, so you can enjoy Bears Eat Me - Blindfold Rhythm Tab even more:

Try out the AutoScroller option ... It scrolls the page for you, so you can totally focus on nailing that solo. You can choose among different speeds using your mouse or your keyboard (keys 0, 1, 2 and 3).

Show us your talent, perform Bears Eat Me - Blindfold Rhythm Tab!

Here you can post a video or audio performance. Tell me more ...
Where can we find your performance? Tell me more ...
Your comment:
Please, log in to post your performance.