Artists by letter: A B C D E F G H I J K L M N O P Q R S T U V W X Y Z 0-9

 
Arden - A Slow Spiral Geoffrey Tab
Guitar Tab for "A Slow Spiral Geoffrey" by Arden

Arden is:
Laurie Huebschman- vocals/piano
Kevin Krause- bass/vocals
Neal Karkhanis- guitar
Lee Cumberland- guitar/vocals/percussion
Jon Lehet- drums


Here are the chords used in this song:

A Major  Aminor   E Major  C#minor   B	   B/C   G#minor   G Major  F#minor

e|--0------0---------0-------4-------0------------4--------3---------2------|
B|--2------1---------0-------5-------0-----4------4--------3---------2------|
G|--2------2---------1-------6-------4-----5------4--------4---------2------|
D|--2------2---------2-------6-------4-----4------6--------5---------4------|
A|--0------0---------2-------4-------2-----3------6--------5---------4------|
E|-------------------0----------------------------4--------3---------4------|

Song Layout:

Verse- E Major, C#minor, A Major, B (first verse- guitar just scratches, second    
guitar plays lead line)

Pre-Chorus- A Major, C#minor, B, A Major, E Major, B

Chorus- C#minor, B, E Major, A Major, C#minor, B, A Major, Aminor

Bridge- G#minor, G Major, F#minor, B, B/C

Chords Under Solo- same as verses


2nd Verse Lead Line:

e|--0-----------------4----------------------------0------------------------|
B|-----0-----------0-----5--------4/5-----------2-----2-----2/4-----4-------|
G|--------1-----1-----------6----------6-----2-----------2-------4-----4---|
D|-----------2-----------------6----------2---------------------------------|
A|--------------------------------------------------------------------------|
E|--------------------------------------------------------------------------|

e|--------------------------------------------------------------------------|
B|--4------4----------------------------------------------------------------|
G|-4/5--5-----5-------------------------------------------------------------|
D|--------------------------------------------------------------------------|
A|--------------------------------------------------------------------------|
E|--------------------------------------------------------------------------|

Solo

e|----------------------------12--------------------------------------------|
B|--------------1214--14/16------9-----9--9/1210--------------------------|
G|9--11/12/13-----------------------9-------------9--------9-----8------11-9|
D|----------------------------------------------------9/11----9-----10------|
A|--------------------------------------------------------------------------|
E|--------------------------------------------------------------------------|
Last Chorus Lead Line:

e|--0------------------0--------0-------------------------------------------|
B|-----2------------2-----1-----0-------------------------------------------|
G|--------2-----2------------2--1-------------------------------------------|
D|-----------2------------------2-------------------------------------------|
A|------------------------------2-------------------------------------------|
E|------------------------------0-------------------------------------------|

Key:

h - hammer on
p - pull off
b - bend string up
r - release bend
/ - slide up
 - slide down
v - vibrato (sometimes written as ~)
t - right hand tap
x - play 'note' with heavy damping

 
 
Misc Unsigned Bands - Arden - A Slow Spiral Geoffrey Tab :: indexed at Ultimate Guitar.
Arden - A Slow Spiral Geoffrey tabs @ 911Tabs

Quick tip, so you can enjoy Arden - A Slow Spiral Geoffrey Tab even more:

If you spend just 10 seconds to register, you will be able to comment on all the chords and tabs and rate them. You will as well be able to comment on videos of your fellow guitarists and give them ratings from 1 to 5 ... And - of course - you can share your own videos with them and see what they think of you. :)
Click here to join us!

Show us your talent, perform Arden - A Slow Spiral Geoffrey Tab!

Here you can post a video or audio performance. Tell me more ...
Where can we find your performance? Tell me more ...
Your comment:
Please, log in to post your performance.