Artists by letter: A B C D E F G H I J K L M N O P Q R S T U V W X Y Z 0-9

 
Alex Kaneko - Twenty Heartbeats Tab
-------------------------------------------------------------------------------
			     TWENTY HEARTBEATS - Alex Kaneko
-------------------------------------------------------------------------------
Tabbed by: Hawt_Ramen
Email: Hawt_Ramen

Tuning: Drop D
Capo on 2nd


(Will is playing a melodica for those of you who don't know)

Order:
Intro
Verse
Pre-chorus
Chorus
Intro
Verse
Pre-chorus
Chorus
Solo
Chorus
Outro

Intro:
e|--------------------------------------------------------------------------|
B|---------2-----------------2-----------------0-----------------0----------|
G|------2-------2---------2-------2---------2-------2---------2-------2-----|
D|----2-------2---2-----2-------2---2-----2-------2---2-----2-------2---2---|
A|-0-----------------0------------------------------------------------------|
D|-------------------------------------4-----------------4------------------|


e|---------0-----------------0----------------------------------------------|
B|------2-------2---------2-------2------------0-------0--------------------|
G|----2-------2---2-----2-------2---2-------2-------2-----------------------|
D|-0-----------------0--------------------2-------2-------------------------|
A|--------------------------------------------------------------------------|
D|-------------------------------------2------------------------------------|


Verse:  Play twice
e|--------------------------------------------------------------------------|
B|---------2-----------------2-----------------0-----------------0----------|
G|------2-------2---------2-------2---------2-------2---------2-------2-----|
D|----2-------2---2-----2-------2---2-----2-------2---2-----2-------2---2---|
A|-0-----------------0------------------------------------------------------|
D|-------------------------------------4-----------------4------------------|


e|---------0-----------------0----------------------------------------------|
B|------2-------2---------2-------2------------0-----------------0----------|
G|----2-------2---2-----2-------2---2-------2-------2---------2-------2-----|
D|-0-----------------0--------------------2-------2---2-----2-------2---2---|
A|--------------------------------------------------------------------------|
D|-------------------------------------2-----------------2------------------|


Pre-chorus:
e|---------0-----------------0---------------2------2------2----------------|
B|-0-----------------0---------------------2------2------2------2-----------|
G|------2-------2---------2-------2------2------2------2------2---2---------|
D|----2-------2---2-----2-------2---2-0-------------------------------------|
A|--------------------------------------------------------------------------|
D|-4-----------------2------------------------------------------------------|

e|---------0-----------------0---------------2------2------2----------------|
B|-0-----------------0---------------------2------2------2------2---0-------|
G|------2-------2---------2-------2------2------2------2------2---2---------|
D|----2-------2---2-----2-------2---2-0-------------------------------------|
A|--------------------------------------------------------------------------|
D|-4-----------------2----------------------------------------------2-------|


Chorus:  Chords (Listen for strumming pattern)
e|-0----x--x--x--0----x--x--x---x---0---------------------------------------|
B|-0----x--x--x--0----x--x--x---2---0---------------------------------------|
G|-2----9--6--6--2----9--6--6---2---2---------------------------------------|
D|-2----9--7--7--2----9--7--7---0---2---------------------------------------|
A|-0----x--7--7--0----x--7--7-------0---------------------------------------|
D|-2----7--5--4--2----7--5--4-------2---------------------------------------|


Melodica Solo:  Same chords as the intro
e|-0--0--0--0----0--0--0--0-------------------------------------------------|
B|-2--0--2--0----2--0--2--0-------------------------------------------------|
G|-2--2--2--2----2--2--2--2-------------------------------------------------|
D|-2--2--0--2----2--2--0--2-------------------------------------------------|
A|-0--0-----0----0--0-----0-------------------------------------------------|
D|----4-----2-------4-----2-------------------------------------------------|


Outro:
e|--------------------------------------------------------------------------|
B|---------2-----------------2-----------------0-----------------0----------|
G|------2-------2---------2-------2---------2-------2---------2-------2-----|
D|----2-------2---2-----2-------2---2-----2-------2---2-----2-------2---2---|
A|-0-----------------0------------------------------------------------------|
D|-------------------------------------4-----------------4------------------|


e|---------0-----------------0-----------------------------------0----------|
B|------2-------2---------2-------2------------0--------------------------2-|
G|----2-------2---2-----2-------2---2-------2-------2---------2-------2---2-|
D|-0-----------------0--------------------2-------2---2-----2-------2---2-2-|
A|------------------------------------------------------------------------0-|
D|-------------------------------------2-----------------2------------------|


| /  slide up
|   slide down
| h  hammer-on
| p  pull-off
| ~  vibrato
| +  harmonic
| x  Mute note
===============================================================================


 
 
Misc Unsigned Bands - Alex Kaneko - Twenty Heartbeats Tab :: indexed at Ultimate Guitar.
Alex Kaneko - Twenty Heartbeats tabs @ 911Tabs

Quick tip, so you can enjoy Alex Kaneko - Twenty Heartbeats Tab even more:

If you spend just 10 seconds to register, you will be able to comment on all the chords and tabs and rate them. You will as well be able to comment on videos of your fellow guitarists and give them ratings from 1 to 5 ... And - of course - you can share your own videos with them and see what they think of you. :)
Click here to join us!

Show us your talent, perform Alex Kaneko - Twenty Heartbeats Tab!

Here you can post a video or audio performance. Tell me more ...
Where can we find your performance? Tell me more ...
Your comment:
Please, log in to post your performance.