Artists by letter: A B C D E F G H I J K L M N O P Q R S T U V W X Y Z 0-9

A Prophets Lies - The Beginning Of The End Tab - Misc Unsigned Bands


 
A Prophets Lies - The Beginning Of The End Tab
**This is the authors own representation of the song.**
** 2008, A Prophet's Lies.**

Tabbed by Nick Mast
[email protected]

Band: A Prophet's Lies
Album: Changing the Written Text; The First Lie
Name: The Beginning of the End

--GUITAR--
e|--------------------------------------------------------------------------|
B|---------------x4----------------------------------x4---------------------|
G|--15-14---------15-15-15-14-14-14-----------------------------------------|
D|o-------o-15-14-------------------15-15-15-14-14-14-----------------------|
A|--------------------------------------------------------------------------|
E|--------------------------------------------------------------------------|

e|--------------------------------------------------------------------------|
B|--------------------------------------------------------------------------|
G|--------------------------------------------------------------------------|
D|--------------------------------------------------------------------------|
A|--------------------------------------------------------------------------|
E|o-o-o-12-12-12-11-11-11-12-12-12-o-o-o-12-12-12-11^12-o-o-o-12-12-12------|

e|----------------------------------------------------22^22^----------------|
B|----------------------------------------------------20^20^----------------|
G|--------------------------------------------------------------------------|
D|--------------------------------------------------------------------------|
A|--------------------------------------------------------------------------|
E|11-11-11-12-12-12-o-o-o-12-12-12^11-11-11^12------------------------------|

e|--------------------------------------------------------------------------|
B|--------------x4-----------------------------------x4---------------------|
G|o-15-14----------15-15-15-14-14-14----------------------------------------|
D|-------o-15-14--------------------15-15-15-14-14-14-----------------------|
A|--------------------------------------------------------------------------|
E|--------------------------------------------------------------------------|

e|--------------------------------------------------------------------------|
B|--------------------------------------------------------------------------|
G|--------------------------------------------------------------------------|
D|--------------------------------------------------------------------------|
A|--------------------------------------------------------------------------|
E|o-o-o-12-12-12-11-11-11-12-12-12-o-o-o-12-12-12-11^12-o-o-o-12-12-12------|

e|--------------------------------------------------------------------------|
B|--------------------------------------------------------------------------|
G|--------------------------------------------------------------------------|
D|--------------------------------------------------------------------------|
A|--------------------------------------------------------------------------|
E|11-11-11-12-12-12-o-o-o-12-12-12^11-11-11^12------------------------------|

e|--------------------------------------------------------------------------|
B|--------------------------------------------------------------------------|
G|--------------------------------------------------------------|
D|--------------------------------------------------------------|
A|----------------------------------x2--------------------------|
E|3--3-3-3--3--2--1-3--3-3-3--3--5-6----------------------------------------|

e|--------------------------------------------------------------------------|
B|--------------------------------------------------------------------------|
G|--------------------------------------------------------------------------|
D|------------------------oh2h3-3p2po--------------------------------3-2-o--|
A|3-2-o-------------oh2h3-------------3p2po--------------3-2-o--------------|
E|------3-2-o-oh2h3-------------------------3p2po--3-2-o-------3-2-o--------|

e|--------------------------------------------------------------------------|
B|--------------------------------------------------------------------------|
G|--------------------------------x2-----x2---------------------------------|
D|-----------------3-2-o-----3-2-o---------3-2-o----------------------------|
A|------3-2-o-----------3-2-o-------3-2-o-------3-2-o-----------------------|
E|3-2-o-------3-2-o----------------------------------3-2-o------------------|

e|--------------------------------------------------------------------------|
B|--------------------------------------------------------------------------|
G|--------------------------------------------------------x2-----x2---------|
D|------------------3-2-o------------------3-2-o-----3-2-o------------------|
A|------3-2-o-------------------3-2-o-----------3-2-o-------3-2-o-----------|
E|3-2-o-------3-2-o-------3-2-o-------3-2-o---------------------------------|

e|--------------------------------------------------------------------------|
B|--------------------------------------------------------------------------|
G|-----x4-----x4-----x4-----x4-----x4-----x2--------------------------------|
D|3-2-o-----------------------3-2-o----------3-2-o--------------------------|
A|-------3-2-o---------3-2-o---------3-2-o--------3-2-o---------------------|
E|--------------3-2-o----------------------------------3-2-o-o--------------|

--DRUMS--
HiH = High Hat
Snr = Snare
pSn = Popcorn Snare
Bss = Bass
Crh = Crash
Cna = China
Tm1 = Tom Tom 1
Tm2 = Tom Tom 2
FTm = Floor Tom
(x) = Open High Hat

HiH|(x)---(x)---(x)---(x)---------------------------------------------------|
Snr|------------------------------------------------------------------------|
pSn|------------------------------------------------------------------------|
Bss|------------------------------------------------------------------------|
Crh|------------------------------------------------------------------------|
Cna|------------------------------------------------------------------------|
Tm1|------------------------------------------------------------------------|
Tm2|------------------------------------------------------------------------|
FTm|------------------------------------------------------------------------|

HiH|------------------------x---x---x---x---x---x---x---x---x---x---xxxx--x-|
Snr|------x-(repeat 7)----------x-------x-------x-------x--------------x----|
pSn|------x-----------------------------------------------------------------|
Bss|xxxxxxx---------------------x-------x-------x-------x--------------x----|
Crh|------------------------------------------------------------------------|
Cna|------------------------------------------------------------------------|
Tm1|------------------xxxxx-------------------------------------------------|
Tm2|------------------xxxxx-------------------------------------------------|
FTm|------------------------------------------------------------------------|

HiH|------------------------------------------------------------------------|
Snr(RIM)|x---x-(repeat 2)---------------------------------------------------|
pSn|------------------------------------------------------------------------|
Bss|-------x----------------------------------------------------------------|
Crh|---------------------x--------------------------------------------------|
Cna|---------------------x--------------------------------------------------|
Tm1|------------------------------------------------------------------------|
Tm2|------------------------------------------------------------------------|
FTm(RIM)|-x--x--------------------------------------------------------------|

HiH|xxxxx(4)---------x---x---x---x---x---x---x---x---x---x---xxxx--x--------|
Snr|----x-------x(7)-----x-------x-------x-------x--------------x-----------|
pSn|------------x-----------------------------------------------------------|
Bss|------xxxxxxx--------x-------x-------x-------x--------------x-----------|
Crh|------------------------------------------------------------------------|
Cna|------------------------------------------------------------------------|
Tm1|------------------------------------------------------------------------|
Tm2|------------------------------------------------------------------------|
FTm|------------------------------------------------------------------------|

HiH|x-x-x-x-x-x(4)----------------------------------------------------------|
Snr|----x----------------------x-x-x--x-x-x-x-x--x-x-x-x--x-----------------|
pSn|---------------------------------x----------------x---------------------|
Bss|x--x----x-x-------------------------------------------------------------|
Crh|-----------------------------------------x------------------------------|
Cna|------------------------------------------------------------------------|
Tm1|-------------------------------------x---------------x------------------|
Tm2|----------------------------x-----------------x-------------------------|
FTm|--------------------------x---x-----x--x----x---x---x--x----------------|

HiH|------------------------------------------------------------------------|
Snr|------------------------------xxxx--------------------------------------|
pSn|xxx-xxx-xxxxxx-xxxxxx-xxx-xxx-------------------------------------------|
Bss|------------------------------------------------------------------------|
Crh|------------------------------------------------------------------------|
Cna|------------------------------------------------------------------------|
Tm1|xxx-----xxxxxx--------xxx-----------------------------------------------|
Tm2|----xxx--------xxxxxx-----xxx-------------------------------------------|
FTm|------------------------------xxxx--------------------------------------|

 
 
Misc Unsigned Bands - A Prophets Lies - The Beginning Of The End Tab :: indexed at Ultimate Guitar.
A Prophets Lies - The Beginning Of The End tabs @ 911Tabs

Quick tip, so you can enjoy A Prophets Lies - The Beginning Of The End Tab even more:

YourChords.com Guitar Chords and Tabs Archive is currently indexing over 240'000 songs from 21'000+ different artists. And new chords just keep on coming in, so you will surely never run out of them.

Show us your talent, perform A Prophets Lies - The Beginning Of The End Tab!

Here you can post a video or audio performance. Tell me more ...
Where can we find your performance? Tell me more ...
Your comment:
Please, log in to post your performance.