Artists by letter: A B C D E F G H I J K L M N O P Q R S T U V W X Y Z 0-9

Mer Hayrenik Armenian National Anthem Tab - Misc Traditional


 
Mer Hayrenik Armenian National Anthem Tab
the Armenian National Anthem, "Mer Hayrenik" composed by Barsegh Kanachyan.

simple to play. this is my first tab by the way.


|------------------|
|--15----13-12-----|
|--------------12--|
|------------------|
|------------------|
|------------------| X2

|--12----14-15--17-15-14--12----|
|-----------------------------15|
|-------------------------------|
|-------------------------------|
|-------------------------------|
|-------------------------------|

|-12--14-15-17-------------|
|--------------15-13-12----|
|------------------------12|
|--------------------------|
|--------------------------|
|--------------------------|

|-------------------------|
|----12-13-15-13-12--13-15|
|-14----------------------|
|-------------------------|
|-------------------------|
|-------------------------|

|-12--14-15-17-------------|
|--------------15-13-12----|
|------------------------12|
|--------------------------|
|--------------------------|
|--------------------------|

|--------------------------|
|----12-13-15-13-12--------|
|-14-----------------14--12|
|--------------------------|
|--------------------------|
|--------------------------|




 
 
Misc Traditional - Mer Hayrenik Armenian National Anthem Tab :: indexed at Ultimate Guitar.
Mer Hayrenik Armenian National Anthem tabs @ 911Tabs

Quick tip, so you can enjoy Mer Hayrenik Armenian National Anthem Tab even more:

If you don't really know how to deal with "Absus4" chord and his equally confusing brothers, just put the mouse cursor over them and you will be shown a helpful chord diagram.

Show us your talent, perform Mer Hayrenik Armenian National Anthem Tab!

Here you can post a video or audio performance. Tell me more ...
Where can we find your performance? Tell me more ...
Your comment:
Please, log in to post your performance.