Artists by letter: A B C D E F G H I J K L M N O P Q R S T U V W X Y Z 0-9

 
Mango Tree Tab
Angus and Julia Stone
Mango Tree
Chocolate and Cigarettes EP

Intro
    G                    Em7
e|------0---------0---------0---------0--------------------------------| 
B|------3-3-------3-3-------3-3-------3-3------------------------------| 
G|----------0---------0---------0---------0----------------------------| 
D|---------------------------------------------------------------------| 
A|---------------------------------------------------------------------| 
E|--3-3--------3-3-------0-0-------0-0---------------------------------| 

G
I wish I had a mango tree
Em7
In my backyard 
G
With you standing next to me
Em7
Take the picture
G
From her lips I heard her say
Em7
Can I have you
G
Caught up on what to say
             Em7
I said you do

Chorus
    I said you do...       I said you do...  
e|---0----0----0----0-------0----0----0----0----------------------------| 
B|---3----3----3----3-------3----3----3----3----------------------------| 
G|----------------------------------------------------------------------| 
D|------------------------------0--0------------------------------------| 
A|--3--3-2--2--------------3--3-----------------------------------------| 
E|------------3--3-3-----3-----------3--3-3-----------------------------| 



Through my eyes I can see
A shooting star
Weaving its way across the sea
Somewhere from Mars
Cause down the street we will run
Scatch our names in the path
Young and free, in the sun
Wheels upon the tar
I said you do

I said you do
I said you do
I said you do
I said you do

solo

    G                                    Em7
e|--7-5-3----3p0-------------------------7h8--0-3-5-5s7-5-3h5p3--------| 
B|---------------3p0---------------------------------------------------|
G|-------------------2p0-----------0-----------------------------------| 
D|-----------------------2p0--0h2--------------------------------------| 
A|---------------------------------------------------------------------| 
E|---------------------------------------------------------------------| 

    G                                    Em7 
e|--7-5-3----3p0-------------------------7h8--0-3-5-5s7-5-3h5p3--------| 
B|---------------3p0---------------------------------------------------| 
G|-------------------2p0-----------0-----------------------------------| 
D|-----------------------2p0--0h2--------------------------------------| 
A|---------------------------------------------------------------------| 
E|---------------------------------------------------------------------| 

   Chorus played over
e|-2-2h3---------2-2h3----------2-2h3----------------------------------| 
B|--------0-0h1---------1-1h3----------1-3--3--------------------------| 
G|---------------------------------------------0-----------------------| 
D|---------------------------------------------------------------------| 
A|---------------------------------------------------------------------| 
E|---------------------------------------------------------------------| 


I wish I had a mango tree
In my backyard 
With you standing next to me
Take the picture
From her lips I heard her say
Can I have you
Caught up on what to say
I said you do

I said you do
I said you do
I said you do
I said you do

G Em7

http://www.angusandjuliastone.com/v106alpha.htm

 
 
Angus And Julia Stone - Mango Tree Tab :: indexed at Ultimate Guitar.
Mango Tree tabs @ 911Tabs

Quick tip, so you can enjoy Mango Tree Tab even more:

After the registration (which takes just 10 seconds, remember?) you will be able to use your profile - your very own piece of YourChords.com.

Show us your talent, perform Mango Tree Tab!

Here you can post a video or audio performance. Tell me more ...
Where can we find your performance? Tell me more ...
Your comment:
Please, log in to post your performance.