Artists by letter: A B C D E F G H I J K L M N O P Q R S T U V W X Y Z 0-9

 
Babylon Tab
This is my first tab, I have used Thomas B's Previous Tab, and editted it. THe tab below
believe is more accurate and allows for all the notes to ring properly:-

.
e------------------------------------------------------------------|
B------------------------------------------------------------------|
G------------2-----------------------------2-----------------------|
D--2h4h5p0-----0--5--4-2h4-0----2h4h5p0----0--5--4-2h4-0--------|
A------------------------------------------------------------------|
E------------------------------------------------------------------|

Perhaps its 2h4p0 or 2h4 0 (The latter sounds clearer perhaps)

e--------------------------------------------------------3-x--|
B----------------------------------------------------3---3-x--|
G----------------------------------------------------0---0-x--|
D--------0----4----0----0-0-x-x------0----4----0---0-0---0-x--|
A-----------------------2-2-x-x--------------------2-2---2-x--|
E---2h3-----3----3------3-3-x-x--2h3----3----3-----3-3---3-x--|


listen to the song to get that rhythm, + with the muting, i may not be written down 
right, but you know yourself, once your playing the song you get the muting with the rhythm 
beat. (Much harder to isolate it and write it down :-) ).

the chords are strummed once during the chorus as follows:
    Em(022033)      G(320033)
(No I don't want to be ay-ay-alone)

LYRICS:
So-oh rest your head-
you're all mine.
And I stay awake,
I won't go home.
Let's go on holidays.
To burn this town
She's my Baby-lo-on.

So rest your heart-
you're all mine.
Because if you walk away,
I fall on down.
And bleed, red as blood-
Red as wine.
She's my Baby-lo-on.

No I don't want to
see-ay-ay you go.
No I don't want to
be ay-ay-alone.

So rest your hand -
you're all mine.
I can't stay awake,
my eyes fall down.
Said I dreamed a dream
that you walk 'round
She's my Baby-lo-on.

No I don't want to
See-ay-ay you go.
No I don't want to
Be ay-ay-alone
No I don't want to
Be ay-ay-alone.
No I don't want to
Be alone.

P.s Feel free to correct or alter... and Many thanks to Thomas B, great song and i 
have known where to start without ya.

 E P.

 
 
Angus And Julia Stone - Babylon Tab :: indexed at Ultimate Guitar.
Babylon tabs @ 911Tabs

Quick tip, so you can enjoy Babylon Tab even more:

If you don't really know how to deal with "Absus4" chord and his equally confusing brothers, just put the mouse cursor over them and you will be shown a helpful chord diagram.

Show us your talent, perform Babylon Tab!

Here you can post a video or audio performance. Tell me more ...
Where can we find your performance? Tell me more ...
Your comment:
Please, log in to post your performance.