Artists by letter: A B C D E F G H I J K L M N O P Q R S T U V W X Y Z 0-9

 
Video Girl Tab
This is my first tab! I don't think its 100% right (the solos aren't included) but there
another tab for this song yet, and it sounds alright to me. Please listen to the for 
patterns. Enjoy and please rate!

Updated (10/20/2008):

Intro
e|-----------------------------------------------------------|
B|-----------------------------------------------------------|
G|--9--9--9---999--------------------------------------------|
D|--9--9--9---999--------------------------------------------|x3
A|--7--7--7---777--------------------------------------------|
E|-----------------------------------------------------------|

Verse #1
e|-----------------------------------------------------------|
B|-----------------------------------------------------------|
G|--9--7--5--------------------------------------------------|
D|--9--7--5--9-----------------------------------------------|
A|--7--5--3--9-----------------------------------------------|
E|-----------7-----------------------------------------------|

e|-----------------------------------------------------------|
B|-----------------------------------------------------------|
G|---9-------7------5----------------------------------------|
D|---9-x4----7-x4---5-x4----9--------------------------------|
A|--7-------5------3--------9-x4-----------------------------|
E|-------------------------7---------------------------------|

e|-----------------------------------------------------------|
B|-----------------------------------------------------------|
G|--5------4------9------7------5--------5~------------------|
D|--5-x2---4-x2---9-x2---7-x2---5-x4-----5~------------------|
A|-3------2------7------5------3---------3~------------------|
E|-----------------------------------------------------------|

Chorus
e|-------------------------------------------|
B|-------------------------------------------|
G|--9-9-9--7-7--7777-----------4-4--4444-----|
D|--9-9-9--7-7--7777---7-7-7---4-4--4444-----|x4
A|--7-7-7--5-5--5555---7-7-7---2-2--2222-----|
E|---------------------5-5-5-----------------|

(Play Intro before verse)

Verse #2
e|-----------------------------------------------------------|
B|-----------------------------------------------------------|
G|---9-------7------5----------------------------------------|
D|---9-x4----7-x4---5-x4----9--------------------------------|x2
A|--7-------5------3--------9-x4-----------------------------|
E|-------------------------7---------------------------------|

e|-----------------------------------------------------------|
B|-----------------------------------------------------------|
G|--5------4------9------7------5--------5~------------------|
D|--5-x2---4-x2---9-x2---7-x2---5-x4-----5~------------------|
A|-3------2------7------5------3---------3~------------------|
E|-----------------------------------------------------------|


Bridge
e|--------------------------------------------------|
B|--------------------------------------------------|
G|--------------------------------------------------|
D|--9-----7-----14-----12---------------------------|x2
A|--9-x2--7-x2--14-x2--12-x2------------------------|
E|-7-----5-----12-----10----------------------------|

Please Comment and Rate! Thanks for reading!

 
 
Jonas Brothers - Video Girl Tab :: indexed at Ultimate Guitar.
Video Girl tabs @ 911Tabs

About the artist behind Video Girl Tab:

The Jonas Brothers are an American pop-rock band from Wyckoff, New Jersey made up of three brothers: Kevin, Joe, and Nick Jonas. They have released two albums - It's About Time in 2006, and Jonas Brothers in 2007, and will release A Little Bit Longer in 2008.

Indexed at Wikipedia.

Show us your talent, perform Video Girl Tab!

Here you can post a video or audio performance. Tell me more ...
Where can we find your performance? Tell me more ...
Your comment:
Please, log in to post your performance.