Artists by letter: A B C D E F G H I J K L M N O P Q R S T U V W X Y Z 0-9

 
Im Yours Tab
----------------------------------------------------------------------------
			     I'm Yours - Jason Mraz(2008)
----------------------------------------------------------------------------
Tabbed By - Nolan4C
Email me - [email protected]
Tuning - Standard / EADGBe

I am writing this off the new version (2008) by the Music Video on You Tube( 
)I am 95% sure this is right. I love the Lyrics so i added them at the end. Also the X means you 
the chord you are on.

Lead Melody:

e|-------------------------------------------------------------------------|
B|-------------------------------------------------------------------------|
G|-----11/13--11----11/13-------11/13-------8h9p8-------11/13--11----------|
D|-------------------------11----------13---------9------------------------|
A|-------------------------------------------------------------------------|
E|-------------------------------------------------------------------------|

                   x  y x y    x  y x y   Sim.
e|-------------------------------------------------------------|
B|-----9--X-X-X----9--X-X-X----9--X-X-X----9--X-X-X------------|
G|-----11-X-X-X----11-X-X-X----11-X-X-X----11-X-X-X----5-X-X-X-|
D|-----11-X-X-X----11-X-X-X----11-X-X-X----11-X-X-X----6-X-X-X-|
A|-----9--X-X-X----9--X-X-X----9--X-X-X----9--X-X-X----6-X-X-X-|
E|-----------------------------------------------------4-X-X-X-|


e|-------------------------------------------------------------------------|
B|--------------------------------------7-X-X-X----7-X-X-X----7-X-X-X------|
G|-----5-X-X-X----5-X-X-X----5-X-X-X----9-X-X-X----9-X-X-X----9-X-X-X------|
D|-----6-X-X-X----6-X-X-X----6-X-X-X----9-X-X-X----9-X-X-X----9-X-X-X------|
A|-----6-X-X-X----6-X-X-X----6-X-X-X----7-X-X-X----7-X-X-X----7-X-X-X------|
E|-----4-X-X-X----4-X-X-X----4-X-X-X---------------------------------------|


e|--------------|
B|-----7-X-X-X--|
G|-----9-X-X-X--|
D|-----9-X-X-X--|
A|-----7-X-X-X--|
E|--------------|

e|---------------------------------------------------------------|
B|--------------------------------------------------9--X-X-X-----|
G|------8-X-X-X----8-X-X-X----8-X-X-X----8-X-X-X----11-X-X-X-----|
D|------9-X-X-X----9-X-X-X----9-X-X-X----9-X-X-X----11-X-X-X-----|
A|------9-X-X-X----9-X-X-X----9-X-X-X----9-X-X-X----9--X-X-X-----|
E|------7-X-X-X----7-X-X-X----7-X-X-X----7-X-X-X-----------------|

e|-------------------------------------------------------------------------|
B|-----9--X-X-X----9--X-X-X----9--X-X-X------------------------------------|
G|-----11-X-X-X----11-X-X-X----11-X-X-X----5-X-X-X----5-X-X-X----5-X-X-X---|
D|-----11-X-X-X----11-X-X-X----11-X-X-X----6-X-X-X----6-X-X-X----6-X-X-X---|
A|-----9--X-X-X----9--X-X-X----9--X-X-X----6-X-X-X----6-X-X-X----6-X-X-X---|
E|-----------------------------------------4-X-X-X----4-X-X-X----4-X-X-X---|

e|-----------------------------------------------------------|
B|----------------7-X-X-X----7-X-X-X----7-X-X-X----7-X-X-X---|
G|-----5-X-X-X----9-X-X-X----9-X-X-X----9-X-X-X----9-X-X-X---|
D|-----6-X-X-X----9-X-X-X----9-X-X-X----9-X-X-X----9-X-X-X---|
A|-----6-X-X-X----7-X-X-X----7-X-X-X----7-X-X-X----7-X-X-X---|
E|-----4-X-X-X-----------------------------------------------|


e|--------------------------------------------------------------|
B|-------------------------------------------------9--X-X-X-----|
G|-----8-X-X-X----8-X-X-X----8-X-X-X----8-X-X-X----11-X-X-X-----|
D|-----9-X-X-X----9-X-X-X----9-X-X-X----9-X-X-X----11-X-X-X-----|
A|-----9-X-X-X----9-X-X-X----9-X-X-X----9-X-X-X----9--X-X-X-----|
E|-----7-X-X-X----7-X-X-X----7-X-X-X----7-X-X-X-----------------|

e|-------------------------------------------------------------------------|
B|-----9--X-X-X----9--X-X-X----9--X-X-X------------------------------------|
G|-----11-X-X-X----11-X-X-X----11-X-X-X----5-X-X-X----5-X-X-X----5-X-X-X---|
D|-----11-X-X-X----11-X-X-X----11-X-X-X----6-X-X-X----6-X-X-X----6-X-X-X---|
A|-----9--X-X-X----9--X-X-X----9--X-X-X----6-X-X-X----6-X-X-X----6-X-X-X---|
E|-----------------------------------------4-X-X-X----4-X-X-X----4-X-X-X---|

e|-----------------------------------------------------------|
B|----------------7-X-X-X----7-X-X-X----7-X-X-X----7-X-X-X---|
G|-----5-X-X-X----9-X-X-X----9-X-X-X----9-X-X-X----9-X-X-X---|
D|-----6-X-X-X----9-X-X-X----9-X-X-X----9-X-X-X----9-X-X-X---|
A|-----6-X-X-X----7-X-X-X----7-X-X-X----7-X-X-X----7-X-X-X---|
E|-----4-X-X-X-----------------------------------------------|


e|-------------------------------------------------------------------------|
B|-------------------------------------------------------------------------|
G|-----11/13--11----11/13-------11/13-------8h9p8-------11/13--11----------|
D|-------------------------11----------13---------9------------------------|
A|-------------------------------------------------------------------------|
E|-------------------------------------------------------------------------|

                   x  y x y    x  y x y   Sim.
e|-------------------------------------------------------------|
B|-----9--X-X-X----9--X-X-X----9--X-X-X----9--X-X-X------------|
G|-----11-X-X-X----11-X-X-X----11-X-X-X----11-X-X-X----5-X-X-X-|
D|-----11-X-X-X----11-X-X-X----11-X-X-X----11-X-X-X----6-X-X-X-|
A|-----9--X-X-X----9--X-X-X----9--X-X-X----9--X-X-X----6-X-X-X-|
E|-----------------------------------------------------4-X-X-X-|


e|-------------------------------------------------------------------------|
B|--------------------------------------7-X-X-X----7-X-X-X----7-X-X-X------|
G|-----5-X-X-X----5-X-X-X----5-X-X-X----9-X-X-X----9-X-X-X----9-X-X-X------|
D|-----6-X-X-X----6-X-X-X----6-X-X-X----9-X-X-X----9-X-X-X----9-X-X-X------|
A|-----6-X-X-X----6-X-X-X----6-X-X-X----7-X-X-X----7-X-X-X----7-X-X-X------|
E|-----4-X-X-X----4-X-X-X----4-X-X-X---------------------------------------|


e|--------------|
B|-----7-X-X-X--|
G|-----9-X-X-X--|
D|-----9-X-X-X--|
A|-----7-X-X-X--|
E|--------------|


e|--------------------------------------------------------------|
B|-------------------------------------------------9--X-X-X-----|
G|-----8-X-X-X----8-X-X-X----8-X-X-X----8-X-X-X----11-X-X-X-----|
D|-----9-X-X-X----9-X-X-X----9-X-X-X----9-X-X-X----11-X-X-X-----|
A|-----9-X-X-X----9-X-X-X----9-X-X-X----9-X-X-X----9--X-X-X-----|
E|-----7-X-X-X----7-X-X-X----7-X-X-X----7-X-X-X-----------------|

e|-------------------------------------------------------------------------|
B|-----9--X-X-X----9--X-X-X----9--X-X-X------------------------------------|
G|-----11-X-X-X----11-X-X-X----11-X-X-X----5-X-X-X----5-X-X-X----5-X-X-X---|
D|-----11-X-X-X----11-X-X-X----11-X-X-X----6-X-X-X----6-X-X-X----6-X-X-X---|
A|-----9--X-X-X----9--X-X-X----9--X-X-X----6-X-X-X----6-X-X-X----6-X-X-X---|
E|-----------------------------------------4-X-X-X----4-X-X-X----4-X-X-X---|
                                                  Hold
e|--------------------------------------------------------|
B|----------------7-X-X-X----7-X-X-X----7-X-X-X----7------|
G|-----5-X-X-X----9-X-X-X----9-X-X-X----9-X-X-X----9------|
D|-----6-X-X-X----9-X-X-X----9-X-X-X----9-X-X-X----9------|
A|-----6-X-X-X----7-X-X-X----7-X-X-X----7-X-X-X----7------|
E|-----4-X-X-X--------------------------------------------|

e|--------------------------------------------------------------|
B|-------------------------------------------------9--X-X-X-----|
G|-----8-X-X-X----8-X-X-X----8-X-X-X----8-X-X-X----11-X-X-X-----|
D|-----9-X-X-X----9-X-X-X----9-X-X-X----9-X-X-X----11-X-X-X-----|
A|-----9-X-X-X----9-X-X-X----9-X-X-X----9-X-X-X----9--X-X-X-----|
E|-----7-X-X-X----7-X-X-X----7-X-X-X----7-X-X-X-----------------|

e|-------------------------------------------------------------------------|
B|-----9--X-X-X----9--X-X-X----9--X-X-X------------------------------------|
G|-----11-X-X-X----11-X-X-X----11-X-X-X----5-X-X-X----5-X-X-X----5-X-X-X---|
D|-----11-X-X-X----11-X-X-X----11-X-X-X----6-X-X-X----6-X-X-X----6-X-X-X---|
A|-----9--X-X-X----9--X-X-X----9--X-X-X----6-X-X-X----6-X-X-X----6-X-X-X---|
E|-----------------------------------------4-X-X-X----4-X-X-X----4-X-X-X---|

e|-----------------------------------------------------------|
B|----------------7-X-X-X----7-X-X-X----7-X-X-X----7-X-X-X---|
G|-----5-X-X-X----9-X-X-X----9-X-X-X----9-X-X-X----9-X-X-X---|
D|-----6-X-X-X----9-X-X-X----9-X-X-X----9-X-X-X----9-X-X-X---|
A|-----6-X-X-X----7-X-X-X----7-X-X-X----7-X-X-X----7-X-X-X---|
E|-----4-X-X-X-----------------------------------------------|

e|--------------------------------------------------------------|
B|-------------------------------------------------9--X-X-X-----|
G|-----8-X-X-X----8-X-X-X----8-X-X-X----8-X-X-X----11-X-X-X-----|
D|-----9-X-X-X----9-X-X-X----9-X-X-X----9-X-X-X----11-X-X-X-----|
A|-----9-X-X-X----9-X-X-X----9-X-X-X----9-X-X-X----9--X-X-X-----|
E|-----7-X-X-X----7-X-X-X----7-X-X-X----7-X-X-X-----------------|

e|-------------------------------------------------------------------------|
B|-----9--X-X-X----9--X-X-X----9--X-X-X------------------------------------|
G|-----11-X-X-X----11-X-X-X----11-X-X-X----5-X-X-X----5-X-X-X----5-X-X-X---|
D|-----11-X-X-X----11-X-X-X----11-X-X-X----6-X-X-X----6-X-X-X----6-X-X-X---|
A|-----9--X-X-X----9--X-X-X----9--X-X-X----6-X-X-X----6-X-X-X----6-X-X-X---|
E|-----------------------------------------4-X-X-X----4-X-X-X----4-X-X-X---|

e|-----------------------------------------------------------|
B|----------------7-X-X-X----7-X-X-X----7-X-X-X----7-X-X-X---|
G|-----5-X-X-X----9-X-X-X----9-X-X-X----9-X-X-X----9-X-X-X---|
D|-----6-X-X-X----9-X-X-X----9-X-X-X----9-X-X-X----9-X-X-X---|
A|-----6-X-X-X----7-X-X-X----7-X-X-X----7-X-X-X----7-X-X-X---|
E|-----4-X-X-X-----------------------------------------------|

e|--------------------------------------------------------------|
B|-------------------------------------------------9--X-X-X-----|
G|-----8-X-X-X----8-X-X-X----8-X-X-X----8-X-X-X----11-X-X-X-----|
D|-----9-X-X-X----9-X-X-X----9-X-X-X----9-X-X-X----11-X-X-X-----|
A|-----9-X-X-X----9-X-X-X----9-X-X-X----9-X-X-X----9--X-X-X-----|
E|-----7-X-X-X----7-X-X-X----7-X-X-X----7-X-X-X-----------------|

e|-------------------------------------------------------------------------|
B|-----9--X-X-X----9--X-X-X----9--X-X-X------------------------------------|
G|-----11-X-X-X----11-X-X-X----11-X-X-X----5-X-X-X----5-X-X-X----5-X-X-X---|
D|-----11-X-X-X----11-X-X-X----11-X-X-X----6-X-X-X----6-X-X-X----6-X-X-X---|
A|-----9--X-X-X----9--X-X-X----9--X-X-X----6-X-X-X----6-X-X-X----6-X-X-X---|
E|-----------------------------------------4-X-X-X----4-X-X-X----4-X-X-X---|

e|-----------------------------------------------------------|
B|----------------7-X-X-X----7-X-X-X----7-X-X-X----7-X-X-X---|
G|-----5-X-X-X----9-X-X-X----9-X-X-X----9-X-X-X----9-X-X-X---|
D|-----6-X-X-X----9-X-X-X----9-X-X-X----9-X-X-X----9-X-X-X---|
A|-----6-X-X-X----7-X-X-X----7-X-X-X----7-X-X-X----7-X-X-X---|
E|-----4-X-X-X-----------------------------------------------|


e|--------------------------------------------------------------|
B|-------------------------------------------------9--X-X-X-----|
G|-----8-X-X-X----8-X-X-X----8-X-X-X----8-X-X-X----11-X-X-X-----|
D|-----9-X-X-X----9-X-X-X----9-X-X-X----9-X-X-X----11-X-X-X-----|
A|-----9-X-X-X----9-X-X-X----9-X-X-X----9-X-X-X----9--X-X-X-----|
E|-----7-X-X-X----7-X-X-X----7-X-X-X----7-X-X-X-----------------|

e|-------------------------------------------------------------------------|
B|-----9--X-X-X----9--X-X-X----9--X-X-X------------------------------------|
G|-----11-X-X-X----11-X-X-X----11-X-X-X----5-X-X-X----5-X-X-X----5-X-X-X---|
D|-----11-X-X-X----11-X-X-X----11-X-X-X----6-X-X-X----6-X-X-X----6-X-X-X---|
A|-----9--X-X-X----9--X-X-X----9--X-X-X----6-X-X-X----6-X-X-X----6-X-X-X---|
E|-----------------------------------------4-X-X-X----4-X-X-X----4-X-X-X---|

e|-----------------------------------------------------------|
B|----------------7-X-X-X----7-X-X-X----7-X-X-X----7-X-X-X---|
G|-----5-X-X-X----9-X-X-X----9-X-X-X----9-X-X-X----9-X-X-X---|
D|-----6-X-X-X----9-X-X-X----9-X-X-X----9-X-X-X----9-X-X-X---|
A|-----6-X-X-X----7-X-X-X----7-X-X-X----7-X-X-X----7-X-X-X---|
E|-----4-X-X-X-----------------------------------------------|

e|-------------------------------------------------------------------------|
B|-------------------------------------------------------------------------|
G|-----11/13--11----11/13-------11/13-------8h9p8-------11/13--11----------|
D|-------------------------11----------13---------9------------------------|
A|-------------------------------------------------------------------------|
E|-------------------------------------------------------------------------|


e|-------------------------------------------------------------|
B|-----8--X-X-X----8--X-X-X----8--X-X-X----8--X-X-X------------|
G|-----11-X-X-X----11-X-X-X----11-X-X-X----11-X-X-X----5-X-X-X-|
D|-----11-X-X-X----11-X-X-X----11-X-X-X----11-X-X-X----6-X-X-X-|
A|-----9--X-X-X----9--X-X-X----9--X-X-X----9--X-X-X----6-X-X-X-|
E|-----------------------------------------------------4-X-X-X-|


e|-------------------------------------------------------------------------|
B|--------------------------------------7-X-X-X----7-X-X-X----7-X-X-X------|
G|-----5-X-X-X----5-X-X-X----5-X-X-X----9-X-X-X----9-X-X-X----9-X-X-X------|
D|-----6-X-X-X----6-X-X-X----6-X-X-X----9-X-X-X----9-X-X-X----9-X-X-X------|
A|-----6-X-X-X----6-X-X-X----6-X-X-X----7-X-X-X----7-X-X-X----7-X-X-X------|
E|-----4-X-X-X----4-X-X-X----4-X-X-X---------------------------------------|


e|--------------|
B|-----7-X-X-X--|
G|-----9-X-X-X--|
D|-----9-X-X-X--|
A|-----7-X-X-X--|
E|--------------|


      Hold for 4 counts each
e|---------------------------------------|
B|----------------9----------------7-----|
G|----8-----------11--------5------9-----|
D|----9-----------11--------6------9-----|
A|----9-----------9---------6------7-----|
E|----7---------------------4------------|


e|--------------------------------------------------------------|
B|-------------------------------------------------9--X-X-X-----|
G|-----8-X-X-X----8-X-X-X----8-X-X-X----8-X-X-X----11-X-X-X-----|
D|-----9-X-X-X----9-X-X-X----9-X-X-X----9-X-X-X----11-X-X-X-----|
A|-----9-X-X-X----9-X-X-X----9-X-X-X----9-X-X-X----9--X-X-X-----|
E|-----7-X-X-X----7-X-X-X----7-X-X-X----7-X-X-X-----------------|

e|-------------------------------------------------------------------------|
B|-----9--X-X-X----9--X-X-X----9--X-X-X------------------------------------|
G|-----11-X-X-X----11-X-X-X----11-X-X-X----5-X-X-X----5-X-X-X----5-X-X-X---|
D|-----11-X-X-X----11-X-X-X----11-X-X-X----6-X-X-X----6-X-X-X----6-X-X-X---|
A|-----9--X-X-X----9--X-X-X----9--X-X-X----6-X-X-X----6-X-X-X----6-X-X-X---|
E|-----------------------------------------4-X-X-X----4-X-X-X----4-X-X-X---|

e|-----------------------------------------------------------|
B|----------------7-X-X-X----7-X-X-X----7-X-X-X----7-X-X-X---|
G|-----5-X-X-X----9-X-X-X----9-X-X-X----9-X-X-X----9-X-X-X---|
D|-----6-X-X-X----9-X-X-X----9-X-X-X----9-X-X-X----9-X-X-X---|
A|-----6-X-X-X----7-X-X-X----7-X-X-X----7-X-X-X----7-X-X-X---|
E|-----4-X-X-X-----------------------------------------------|


e|--------------------------------------------------------------|
B|-------------------------------------------------9--X-X-X-----|
G|-----8-X-X-X----8-X-X-X----8-X-X-X----8-X-X-X----11-X-X-X-----|
D|-----9-X-X-X----9-X-X-X----9-X-X-X----9-X-X-X----11-X-X-X-----|
A|-----9-X-X-X----9-X-X-X----9-X-X-X----9-X-X-X----9--X-X-X-----|
E|-----7-X-X-X----7-X-X-X----7-X-X-X----7-X-X-X-----------------|

e|-------------------------------------------------------------------------|
B|-----9--X-X-X----9--X-X-X----9--X-X-X------------------------------------|
G|-----11-X-X-X----11-X-X-X----11-X-X-X----5-X-X-X----5-X-X-X----5-X-X-X---|
D|-----11-X-X-X----11-X-X-X----11-X-X-X----6-X-X-X----6-X-X-X----6-X-X-X---|
A|-----9--X-X-X----9--X-X-X----9--X-X-X----6-X-X-X----6-X-X-X----6-X-X-X---|
E|-----------------------------------------4-X-X-X----4-X-X-X----4-X-X-X---|
                                                             Hold
e|-----------------------------------------------------------------|
B|----------------7-X-X-X----7-X-X-X----7-X-X-X----7-X-X-X----7----|
G|-----5-X-X-X----9-X-X-X----9-X-X-X----9-X-X-X----9-X-X-X----9----|
D|-----6-X-X-X----9-X-X-X----9-X-X-X----9-X-X-X----9-X-X-X----9----|
A|-----6-X-X-X----7-X-X-X----7-X-X-X----7-X-X-X----7-X-X-X----7----|
E|-----4-X-X-X-----------------------------------------------------|


Well you dawned on me and you bet I felt it
I tried to be chill but you're so hot that I melted
I fell right through the cracks
and now I'm trying to get back
Before the cool done run out
I'll be giving it my bestest
Nothing's going to stop me but divine intervention
I reckon its again my turn to win some or learn some

I won't hesitate no more, no more
It cannot wait, I'm yours

Well open up your mind and see like me
Open up your plans and damn you're free
Look into your heart and you'll find love love love
Listen to the music of the moment people dance and sing,
we're just one big family.
It's your God-forsaken right to be loved love loved love love

So I won't hesitate no more, no more
It cannot wait I'm sure
There's no need to complicate
Our time is short
This is our fate, I'm yours

Do you want to, come on, scootch over closer dear
And I will nibble your ear

I've been spending way too long checking my tongue in the mirror
And bending over backwards just to try to see it clearer
But my breath fogged up the glass
And so I drew a new face and I laughed
I guess what I'm saying is there ain't no better reason
To rid yourself of vanity and just go with the seasons
It's what we aim to do
Our name is our virtue

I won't hesitate no more, no more
It cannot wait I'm sure
There's no need to complicate
Our time is short
This is our fate, I'm yours

Well open up your mind and see like me
Open up your plans and damn you're free
Look into your heart and you'll find the sky is yours
Listen to the music of the moment come and dance with me
ah, la one big family ([2nd time:] ah, la happy family)
It's your God-forsaken right to be loved love love love

I won't hesitate no more
Oh no more no more no more
It's your God-forsaken right to be loved, I'm sure
Theres no need to complicate
Our time is short
This is our fate, I'm yours

No I won't hesitate no more, no more
This cannot wait I'm sure
There's no need to complicate
Our time is short
This is our fate, I'm yours, I'm yours

 
 
Jason Mraz - Im Yours Tab :: indexed at Ultimate Guitar.
Im Yours tabs @ 911Tabs

About the artist behind Im Yours Tab:

Jason Thomas Mraz (pronounced /'dʒeɪsən ˈɱɹæz/; born June 23, 1977) is an American singer-songwriter, born and raised in Mechanicsville, Virginia, a suburb of Richmond.[1]

Mraz is an eclectic artist with multiple and varied stylistic influences, including pop, rock, folk, jazz, country, and hip hop. He has played with various artists, including The Rolling Stones, Bob Dylan, Dave Matthews Band, James Blunt, Gavin DeGraw, Paula Cole, John Popper, Alanis Morissette, The Ohio Players, Rachael Yamagata, Jewel and Colbie Caillat.[citation needed]

Indexed at Wikipedia.

Show us your talent, perform Im Yours Tab!

Here you can post a video or audio performance. Tell me more ...
Where can we find your performance? Tell me more ...
Your comment:
Please, log in to post your performance.