Artists by letter: A B C D E F G H I J K L M N O P Q R S T U V W X Y Z 0-9

 
The Time Has Come Tab
The Time Has Come
by Hillsong United
Tabbed by Ben Wright a.k.a. BloodNChunks ([email protected])

Note: These are the voicings I prefer. I am used to playing an extended-scale guitar,
      because I have a pretty fair reach in my hands.

Come in with: (alternate picking) in from An Introduction.
---Intro Figure
e|---------------------|
B|10...................|
G|---------------------|
D|---------------------|
A|---------------------|
E|---------------------|

then:
---Figure 2
e|---------9-----9--|--------9------9--|---------9-----9--|9----------------------|
B|7--7--7-----7-----|------------------|5--5--5-----5-----|--10-10-10-10-12-12-12-|
G|------------------|7--7--7-----7-----|------------------|-----------------------|
D|------------------|------------------|------------------|-----------------------|
A|------------------|------------------|------------------|-----------------------|
E|------(A)---------|---------(B)------|-------(C)--------|--------(D)------------|

Go back to the first figure, but play this: (alternate picking...FUN!)
---Figure 3
e|--------------------------7....9....-----------------|
B|10........................----------9................|
G|-----------------------------------------------------|
D|-----------------------------------------------------|
A|-----------------------------------------------------|
E|-----------------------------------------------------|

Then back to Fig 2A-2D

Then:
---Figure 4
e|------------------------9--9--9--9--10-10-10-10-|
B|9--9--9--9--10-10-10-10-------------------------|
G|------------------------------------------------|
D|------------------------------------------------|
A|------------------------------------------------|
E|------------------------------------------------|
PM-  -  -  -  -- -- -- -- -  -  -  -  -- -- -- --

e|------------------------9--9--9--9--10-10-10-10-|
B|10-10-10-10-12-12-12-12-------------------------|
G|------------------------------------------------|Last time, end on the C# note,
D|------------------------------------------------|taking off the palm mute.
A|------------------------------------------------|
E|------------------------------------------------|
PM-- -- -- -- -- -- -- -- -  -  -  -  -- -- -- --

Figure 5:
For a second you have to stick with the boring rythm part,
Driving 5th chords
A--------------F#

Then:
e|-------------------|------------------------------------------------------------------------|
B|---------7---------|10-10-9--9--7--7--7--7--------------------------------------------------|
G|------7------7-----|------------------------9--9--9--9--9--9--9--9--9--9--9--9--9--9--9--9--|
D|7--7---------------|------------------------------------------------------------------------|
A|-------------------|------------------------------------------------------------------------|
E|-------------------|------------------------------------------------------------------------|

fade out (on an F# note, 11th fret on the G string is suggested), bass kicks in...

Figure 6 (fingers in these spots, but mute the strings)
e|---------------------|-----------------|
B|---------------------|-----------------|
G|(11)-x-x-x-x-x-x-x-x-|----x-x----x-x---|
D|(11)-x-x-x-x-x-x-x-x-|----x-x----x-x---|
A|(9)--x-x-x-x-x-x-x-x-|----x-x----x-x---|
E|---------------------|-----------------|

Figure 7 (alternate picking, the dots represent 4 notes)
e|10.9........10........9........----------|
B|-------------------------------10....9...|Lightly palm mute all.
G|-----------------------------------------|
D|-----------------------------------------|
A|-----------------------------------------|
E|-----------------------------------------|

Figure 8
e|----------------------10---------|
B|9----------10--------------------|
G|---------------------------------|
D|---------------------------------|
A|---------------------------------|
E|---------------------------------|

Song Order:
Intro
Figure 2 x1
Figure 3 x1
Figure 2 x1
Figure 4 x2
Figure 5 x2
Figure 3 x1
Figure 2 x1
Figure 3 x1
Figure 2 x1
Figure 4 x2
Figure 5 x2
Figure 2 x2 (alt. picked the 2nd time)
-silence, with bass part-
Figure 6 x1
-silence again-
Figure 7 x3
Figure 8 x1
Figure 4 x2
Figure 5 x2
Figure 2 x2

And end on an A note (10th fret of B string).

Tabbed by Ben Wright a.k.a. BloodNChunks ([email protected])
Please give me the credit if you use any part of this tab.

 
 
Hillsong United - The Time Has Come Tab :: indexed at Ultimate Guitar.
The Time Has Come tabs @ 911Tabs

About the artist behind The Time Has Come Tab:

Hillsong United is the youth ministry of Hillsong Church. The youth ministry is combined of four different ages groups that meet separately but have "United" nights when they come together. The different age groups are; Fuel for years 7 to 9 at school, Wildlife for years 10 to 12 at school, Powerhouse for ages 18 to 25 and Frontline for ages 25 to 35.

Indexed at Wikipedia.

Show us your talent, perform The Time Has Come Tab!

Here you can post a video or audio performance. Tell me more ...
Where can we find your performance? Tell me more ...
Your comment:
Please, log in to post your performance.