Artists by letter: A B C D E F G H I J K L M N O P Q R S T U V W X Y Z 0-9

What The World Will Never Take Tab - Hillsong


 
What The World Will Never Take Tab
Song: What The World Will Never Take
Artist: Hillsong
Tuning: Standard (EADGBe)
For questions, comments, corrections, etc., email me at:
[email protected]
And please, don't send spam!
--- --- --- --- --- --- --- --- --- ---
I can't guarantee this tab is what you want, but at least be happy that I sent in 
something that was at least close!

         Intro
e|----------------------|
B|----------------------|
G|----------------------|
D|----------------------|
A|------7-6-6-6-7-------|
E|-5-5------------------|
	
         Solo
e|------------------------------------------------------|
B|---------10---------10-----10----------10-12-13-12-10-|
G|-11-11-----11-11-----11------10-10--------------------|
D|------------------------------------------------------|
A|------------------------------------------------------|
E|------------------------------------------------------|

Quite simple, eh?

 
 
Hillsong - What The World Will Never Take Tab :: indexed at Ultimate Guitar.
What The World Will Never Take tabs @ 911Tabs

Quick tip, so you can enjoy What The World Will Never Take Tab even more:

After the registration (which takes just 10 seconds, remember?) you will be able to use your profile - your very own piece of YourChords.com.

Show us your talent, perform What The World Will Never Take Tab!

Here you can post a video or audio performance. Tell me more ...
Where can we find your performance? Tell me more ...
Your comment:
Please, log in to post your performance.