Artists by letter: A B C D E F G H I J K L M N O P Q R S T U V W X Y Z 0-9

 
This Is Our God Tab
Tabs
Instrumental before 2nd verse
------------------------------------------------|
-17--------16--------17--------17--17--17--19---|
---16-(X4)---16-(x4)---16-(x4)---16--16--16--16-|
------------------------------------------------|
------------------------------------------------|
------------------------------------------------|


Intro & verse
Strum
------------------|
------------------|
-1--4-------------|
-2--6--2--2--4----|
-------4--0--0----|
------------------|


Pre-Chorus
Strum
--------------|
--------------|
-8--9--6--6---|
-9--9--7--7---|
--------------|
--------------|


Chorus
---12---12---12-16----11---11---11-14--|
--------------------12---12---12-------|
-13---13---13--------------------------|
---------------------------------------|
---------------------------------------|
---------------------------------------|

-----------------------------12--|
---14---14--16-17----------------|
-14---14-----------13--13h14-----|
---------------------------------|
---------------------------------|
---------------------------------|

----12----12-----12----12-----|
------------------------------|
-13----13-----13----13--------|
------------------------------|
------------------------------|
------------------------------|

Loud part - strum
-4-----9---12--12---12--|
-5--4--10--12--10---12--|
-4--4--9---9---9----9---|
----4-------------------|
------------------------|
------------------------|
E B F#m C#m A E

 
 
Hillsong - This Is Our God Tab :: indexed at Ultimate Guitar.
This Is Our God tabs @ 911Tabs

Quick tip, so you can enjoy This Is Our God Tab even more:

After the registration (which takes just 10 seconds, remember?) you will be able to use your profile - your very own piece of YourChords.com.

Show us your talent, perform This Is Our God Tab!

Here you can post a video or audio performance. Tell me more ...
Where can we find your performance? Tell me more ...
Your comment:
Please, log in to post your performance.