Artists by letter: A B C D E F G H I J K L M N O P Q R S T U V W X Y Z 0-9

 
Tell The World Tab
This is my 1st Tab so don't get too agro if it's wrong.
Email:[email protected]

                      Intro
Bass play bass riff twice them guitar comes in

|--------------------------------------------------------------------|x2|
|--------------------------------------------------------------------|x2|
|--------------------------------------------------------------------|x2|
|11-11-11-11-11-11--18-18-18--11-11-11-11-16-16-16-14-14-14----------|x2|
|9--9--9--9--9--9---16-16-16--9--9--9--9--14-14-16-12-12-12----------|x2|
|--------------------------------------------------------------------|x2|
 
                    Verse 
|-------------------------------|x3|---------------------------------|x1|
|-------------------------------|x3|---------------------------------|x1|
|-------------------------------|x3|---------------------------------|x1|
|11-11-11-11--19-19-19-18-18-18-|x3|-16-16-16-14-14-14---------------|x1|
|9--9--9--9---17-17-17-16-16-16-|x3|-14-14-16-12-12-12---------------|x1|
|-------------------------------|x3|---------------------------------|x1|

                   Pre-chorus
|--------------------------------------------------------------------|x2|
|--------------------------------------------------------------------|x2|
|---------14-14-14-14-11------------11-11--11--11-11--11-------------|x2|
|11-11-11---------------12-11-11-11-11-11--11--11-11--11-------------|x2|
|--------------------------------------------------------------------|x2|
|--------------------------------------------------------------------|x2|


               Chorus
|--------------------------------|x2|--------------------------------|x1|
|--------------------------------|x2|--------------------------------|x1|
|--------------------------------|x2|--After the seccond only--------|x1|
|------------------------7-7-7-7-|x2|6-6-4-4-6-6---------------------|x1|
|7-7-7-7-2-2-2-2-4-4-4-4-5-5-5-5-|x2|4-4-2-2-4-4-7-7-----------------|x1|
|5-5-5-5-0-0-0-0-2-2-2-2---------|x2|------------5-5-----------------|x1|

                     Intro
|--------------------------------------------------------------------|x2|
|--------------------------------------------------------------------|x2|
|--------------------------------------------------------------------|x2|
|11-11-11-11-11-11--18-18-18--11-11-11-11-16-16-16-14-14-14----------|x2|
|9--9--9--9--9--9---16-16-16--9--9--9--9--14-14-16-12-12-12----------|x2|
|--------------------------------------------------------------------|x2|
 

                      Verse
|-------------------------------|x3|---------------------------------|x1|
|-------------------------------|x3|---------------------------------|x1|
|-------------------------------|x3|---------------------------------|x1|
|11-11-11-11--19-19-19-18-18-18-|x3|-16-16-16-14-14-14---------------|x1|
|9--9--9--9---17-17-17-16-16-16-|x3|-14-14-16-12-12-12---------------|x1|
|-------------------------------|x3|---------------------------------|x1|
                   Pre-chorus
|--------------------------------------------------------------------|x2|
|--------------------------------------------------------------------|x2|
|---------14-14-14-14-11------------11-11--11--11-11--11-------------|x2|
|11-11-11---------------12-11-11-11-11-11--11--11-11--11-------------|x2|
|--------------------------------------------------------------------|x2|
|--------------------------------------------------------------------|x2|



               Chorus
|--------------------------------|x4|--------------------------------|x1|
|--------------------------------|x4|--------------------------------|x1|
|--------------------------------|x4|--Every second time only--------|x1|
|------------------------7-7-7-7-|x4|6-6-4-4-6-6---------------------|x1|
|7-7-7-7-2-2-2-2-4-4-4-4-5-5-5-5-|x4|4-4-2-2-4-4-7-7-----------------|x1|
|5-5-5-5-0-0-0-0-2-2-2-2---------|x4|------------5-5-----------------|x1|

 
Drums plays for a while and come in one the Third time when the singing starts

|-------------------------------|x4|
|-Mute the strings in this part-|x4|
|-------------------------------|x4|
|------------------------7-7-7-7|x4|
|7-7-7-7-9-9-9-9-4-4-4-4-5-5-5-5|x4|
|5-5-5-5-7-7-7-7-2-2-2-2--------|x4|

             Chorus
|--------------------------------|x4|--------------------------------|x1|
|--------------------------------|x4|--------------------------------|x1|
|--------------------------------|x4|--Every second time only--------|x1|
|------------------------7-7-7-7-|x4|6-6-4-4-6-6---------------------|x1|
|7-7-7-7-2-2-2-2-4-4-4-4-5-5-5-5-|x4|4-4-2-2-4-4-7-7-----------------|x1|
|5-5-5-5-0-0-0-0-2-2-2-2---------|x4|------------5-5-----------------|x1|


            Bridge
|-------------------------------|x4|-------------|
|-------------------------------|x4|-To finish---|
|-------------------------------|x4|-------------|
|------------------------7-7-7-7|x4|-------------|
|7-7-7-7-9-9-9-9-4-4-4-4-5-5-5-5|x4|-7,7,7,7--7-7|
|5-5-5-5-7-7-7-7-2-2-2-2--------|x4|-5,5,5,5--5-7|


 
 
Hillsong - Tell The World Tab :: indexed at Ultimate Guitar.
Tell The World tabs @ 911Tabs

Quick tip, so you can enjoy Tell The World Tab even more:

YourChords.com Guitar Chords and Tabs Archive is currently indexing over 240'000 songs from 21'000+ different artists. And new chords just keep on coming in, so you will surely never run out of them.

Show us your talent, perform Tell The World Tab!

Here you can post a video or audio performance. Tell me more ...
Where can we find your performance? Tell me more ...
Your comment:
Please, log in to post your performance.