Artists by letter: A B C D E F G H I J K L M N O P Q R S T U V W X Y Z 0-9

 
Desert Song Tab
-------------------------------------------------------------------------------
Desert song - Hillsong
-------------------------------------------------------------------------------
Tabbed by: Andrew
Email: [email protected]

INTRO
    Gtr1
   Bm            A       G               D
e|-10-----10-----10------10------10------10---|
B|----7-----7-------7-------7-------7-------7-|
G|------7-----7---------------7-------7-------|
D|-(9)-----------(7)--------------------------|      X4
A|----------------------(10)------------------|
E|--------------------------------------(10)--|

Gtr 2
e|---------------------------10-----9---------|
B|----7-------5-----7----/7-----7------10-----|
G|-/7------(7)--(7)---------------------------|      X4
D|--------------------------------------------|
A|--------------------------------------------|
E|--------------------------------------------|

VERSE 1
 Gtr 1
  Bm                      A           G     D
 This is   my   prayer   in    the   desert,
e|-10-----10-----10------10------10------10---|
B|----7-----7-------7-------7-------7-------7-|
G|------7-----7---------------7-------7-------|
D|--------------------------------------------|     
A|--------------------------------------------|
E|--------------------------------------------|

Gtr2 
e|-+7-----------------------------------------|
B|-+7-----------------------------------------|
G|-+7-----------------------------------------|
D|--------------------------------------------|
A|--------------------------------------------|
E|--------------------------------------------|

      Bm                         A       G    D
When all  that's   within   me   feels   dry
e|-10-----10-----10------10------10------10---|
B|----7-----7-------7-------7-------7-------7-|
G|------7-----7---------------7-------7-------|
D|--------------------------------------------|     
A|--------------------------------------------|
E|--------------------------------------------|


Gtr2 
e|-------------+5-----------------------------|
B|----+5+5------------------------------------|
G|-+7------+7---------------------------------|
D|--------------------------------------------|
A|--------------------------------------------|
E|--------------------------------------------|

Gtr1
   Bm               A       G            D
  This is my prayer in  my  hunger  and  need
e|-10-----10-----10------10------10------10---|
B|----7-----7-------7-------7-------7-------7-|
G|------7-----7---------------7-------7-------|
D|--------------------------------------------|     
A|--------------------------------------------|
E|--------------------------------------------|

Gtr2 
e|--------------------------------------------|
B|--------------------------------------------|
G|--------------------------------------------|
D|--------------------------------------------|
A|--------------------------------------------|
E|--------------------------------------------|

Gtr1
      Bm          A          G
  My  God  is  a  God  that  provides
e|-10-----10-----10------10------10------10---|
B|----7-----7-------7-------7-------7-------7-|
G|------7-----7---------------7-------7-------|
D|--------------------------------------------|     
A|--------------------------------------------|
E|--------------------------------------------|


Gtr2 
e|--------------------------------------------|
B|--------------------------------------------|
G|--------------------------------------------|
D|--------------------------------------------|
A|--------------------------------------------|
E|--------------------------------------------|


Gtr1
   Bm                    A               G    D
  This  is  my  prayer   in     the     fire  
e|-10-----10-----10------10------10------10---|
B|----7-----7-------7-------7-------7-------7-|
G|------7-----7---------------7-------7-------|
D|--------------------------------------------|     
A|--------------------------------------------|
E|--------------------------------------------|

Gtr 2
e|---------------------------10-----9---------|
B|----7-------5-----7----/7-----7------10-----|
G|-/7------(7)--(7)---------------------------|      
D|--------------------------------------------|
A|--------------------------------------------|
E|--------------------------------------------|





Gtr1
      Bm                      A    G     D
  In  weakness   or   trial   or   pain  
e|-10-----10-----10------10------10------10---|
B|----7-----7-------7-------7-------7-------7-|
G|------7-----7---------------7-------7-------|
D|--------------------------------------------|     
A|--------------------------------------------|
E|--------------------------------------------|

Gtr 2
e|---------------------------10-----9---------|
B|----7-------5-----7----/7-----7------10-----|
G|-/7------(7)--(7)---------------------------|      
D|--------------------------------------------|
A|--------------------------------------------|
E|--------------------------------------------|

Gtr1
      Bm           A        G               D
 There is a faith proved of more worth than gold  
e|-10-----10-----10------10------10------10---|
B|----7-----7-------7-------7-------7-------7-|
G|------7-----7---------------7-------7-------|
D|--------------------------------------------|     
A|--------------------------------------------|
E|--------------------------------------------|

Gtr 2
e|---------------------------10-----9---------|
B|----7-------5-----7----/7-----7------10-----|
G|-/7------(7)--(7)---------------------------|      
D|--------------------------------------------|
A|--------------------------------------------|
E|--------------------------------------------|

Gtr1
      Bm                A             G      
 So  refine  me  lord  through  the   flame  
e|-10-----10-----10------10------10------10---|
B|----7-----7-------7-------7-------7-------7-|
G|------7-----7---------------7-------7-------|
D|--------------------------------------------|     
A|--------------------------------------------|
E|--------------------------------------------|

Gtr 2
e|--------------------------------------------|
B|----7-------5-----7-------------/10---------|
G|-/7------(7)--(7)-----------(7)------7------|      
D|--------------------------------------------|
A|--------------------------------------------|
E|--------------------------------------------|

CHORUS
                 D                    A                G                       A
And I will bring praise, I will bring praise no weapon formed against me shall remain
e|--------------5------5-----5--------5-----5----5-----5---5----5------------|
B|----------------7------7-----7--------7----7----7------7---7----7(etc)----|
G|------------------7------7--------------7----7----------7---7--------------|
D|---------------------------------------------------------------------------|
A|---------------------------------------------------------------------------|
E|---------------------------------------------------------------------------|

       D               A                  G                 Bm
I will rejoice, I will declare, God is my victory and he is here

(musical interlude)
 Gtr1
   Bm            A       G               D
e|-10-----10-----10------10------10------10---|
B|----7-----7-------7-------7-------7-------7-|
G|------7-----7---------------7-------7-------|
D|-(9)-----------(7)--------------------------|      X2
A|----------------------(10)------------------|
E|--------------------------------------(10)--|

Gtr 2
e|---------------------------10-----9---------|
B|----7-------5-----7----/7-----7------10-----|
G|-/7------(7)--(7)---------------------------|      X2
D|--------------------------------------------|
A|--------------------------------------------|
E|--------------------------------------------|

VERSE 2
Bm                A      G      D     Bm               A      G   D     
This is my prayer in the battle, when triumph is still on its way
Bm                   A            G          Bm                    G
I am a conqueror and co-heir with Christ, so firm on his promise I stand   

Chorus

BRIDGE:
D                               Bm                                    
All of my life, in every season you are still God, 
                   A     G                  D
I have a reason to sing, I have a reason to worship

 
| /  slide up
|   slide down
| h  hammer-on
| p  pull-off
| ~  vibrato
| +  harmonic
| ( ) optional note
===============================================================================



 
 
Hillsong - Desert Song Tab :: indexed at Ultimate Guitar.
Desert Song tabs @ 911Tabs

Quick tip, so you can enjoy Desert Song Tab even more:

Try out the AutoScroller option ... It scrolls the page for you, so you can totally focus on nailing that solo. You can choose among different speeds using your mouse or your keyboard (keys 0, 1, 2 and 3).

Show us your talent, perform Desert Song Tab!

Here you can post a video or audio performance. Tell me more ...
Where can we find your performance? Tell me more ...
Your comment:
Please, log in to post your performance.