Artists by letter: A B C D E F G H I J K L M N O P Q R S T U V W X Y Z 0-9

November Rain Acoustic Tab (ver 2) - Guns N Roses


 
November Rain Acoustic Tab

                                                       

November Rain acoustic  - by Guns N' Roses
Tabbed by LennonsDisciple

This was a acoustic demo by Guns'n Roses before they released
the real single. 

Tune guitar back to 2 semitones if you want to play 
along with Slash - as in the acoustic demo record 
I.e. From
EBGDAE  -> DAFCGD as played on the acoustic demo record

Any queries? [email protected]


1st intro  
                                                       
E||-----------0--------------|-----------0--------------|
B||--------6-----6-----------|--------6-----6-----------|
G||-----5-----------5-----5--|-----5-----------5-----5--|
D||--7-----------------7-----|--7-----------------7-----|
A||--------------------------|--------------------------|
E||--------------------------|--------------------------|


                                                      
-----------0--------------|-----------0--------------|
--------6-----6-----------|--------6-----6-----------|
-----7-----------7-----7--|-----7-----------7-----7--|
--0-----------------0-----|--0-----------------0-----|
--------------------------|--------------------------|
--------------------------|--------------------------|


                                                      
--------3--------0--------|-----------0--------------|
--------------6-----6-----|--6-----------6-----------|
-----5-----5-----------5--|-----5-----------5-----5--|
--5-----------------------|--------5-----------5-----|
--------------------------|--------------------------|
--------------------------|--------------------------|


                                                      
-----------------0--------|-----------0--------------|
--------6-----------6-----|--3-----3-----3-----------|
-----5-----5-----------5--|-----5-----------5-----5--|
--5-----------5-----------|--------------------5-----|
--------------------------|--------------------------|
--------------------------|--------------------------|


   2nd Intro with different picking variation                                                   
-----------------0--------|-----------0--------------|
--------6-----6-----6-----|--6-----------6-----------|
-----5-----5-----------5--|-----5-----------5-----5--|
--7-----------------------|--------7-----------7-----|
--------------------------|--------------------------|
--------------------------|--------------------------|

                                              
-----------------0--------|-----------0--------------|
--------6-----------6-----|--6-----------6-----------|
-----7-----7--7--------7--|-----7--7--------7-----7--|
--0-----------------------|--------------------0-----|
--------------------------|--------------------------|
--------------------------|--------------------------|


                                                      
--------3--------0--------|-----------0--------------|
--------------6-----6-----|--6-----------6-----------|
-----5-----5-----------5--|-----5-----------5-----5--|
--5-----------------------|--------5-----------5-----|
--------------------------|--------------------------|
--------------------------|--------------------------|


                                                      
-----------------0--------|-----------0--------------|
--------6-----------6-----|--3-----3-----3-----------|
-----5-----5-----------5--|-----5-----------5-----5--|
--5-----------5-----------|--------------------5-----|
--------------------------|--------------------------|
--------------------------|--------------------------|


Verse 1 (F)
When I look into your eyes                                                    
-----------------0--------|-----------------0--------|
--------6-----------6-----|--------6-----------6-----|
-----5-----5-----------5--|-----5-----5-----------5--|
--7-----------7-----------|--7-----------7-----------|
--------------------------|--------------------------|
--------------------------|--------------------------|


  (DM)   I can see a love restrained                                                  
-----------------0--------|-----------------0--------|
--------6-----------6-----|--------6-----------6-----|
-----7-----7-----------7--|-----7-----7-----------7--|
--0-----------0-----------|--0-----------0-----------|
--------------------------|--------------------------|
--------------------------|--------------------------|


   (C)                                                    
--------3--------0--------|-----------0--------------|
--------------6-----6-----|--6-----------6-----------|
-----5-----5-----------5--|-----5-----------5-----5--|
--5-----------------------|--------5-----------5-----|
--------------------------|--------------------------|
--------------------------|--------------------------|




                                                      
-----------------0--------|-----------0--------------|
--------6-----------6-----|--3-----3-----3-----------|
-----5-----5-----------5--|-----5-----------5-----5--|
--5-----------5-----------|--------------------5-----|
--------------------------|--------------------------|
--------------------------|--------------------------|


(F) But darlin' when I hold you                                                    
-----------------0--------|-----------------0--------|
--------6-----------6-----|--------6-----------6-----|
-----5-----5-----------5--|-----5-----5-----------5--|
--7-----------7-----------|--7-----------7-----------|
--------------------------|--------------------------|
--------------------------|--------------------------|


  (DM)   Don't you know I feel the same                                                  
-----------------0--------|-----------------0--------|
--------6-----------6-----|--------6-----------6-----|
-----7-----7-----------7--|-----7-----7-----------7--|
--0-----------0-----------|--0-----------0-----------|
--------------------------|--------------------------|
--------------------------|--------------------------|


   (C)                                                    
--------3--------0--------|-----------0--------------|
--------------6-----6-----|--6-----------6-----------|
-----5-----5-----------5--|-----5-----------5-----5--|
--5-----------------------|--------5-----------5-----|
--------------------------|--------------------------|
--------------------------|--------------------------|


-----------------0--------|-----------0--------------|
--------6-----------6-----|--3-----3-----3-----------|
-----5-----5-----------5--|-----5-----------5-----5--|
--5-----------5-----------|--------------------5-----|
--------------------------|--------------------------|
--------------------------|--------------------------|

(DM) 'Cause nothin' lasts forever
-----------------0--------|-----------------0--------|
--------6-----------6-----|--------6-----------6-----|
-----7-----7-----------7--|-----7-----7-----------7--|
--0-----------0-----------|--0-----------0-----------|
--------------------------|--------------------------|
--------------------------|--------------------------|








(G) And we both know hearts can change
-----------3-----3--------|-----------3-----3--------|
--------3-----3-----3-----|--------3-----3-----3-----|
-----0-----------------0--|-----0-----------------0--|
--------------------------|--------------------------|
--------------------------|--------------------------|
--3-----------------------|--3-----------------------|


--8--------8--7--------7--|--7-----------5-----------|--0--------0------------|
-----5-----------5--------|-----5-----5-----5-----8--|--------6-----5---------|
--------5-----------5-----|--------5-----------5-----|-----5-------------7----|
--------------------------|--------------------------|------------------------|
--------------------------|--------------------------|------------------------|
--------------------------|--------------------------|------------------------|



Chords for strumming
Verse  - F  Dm  C Csus4 Csus2
         Dm  G  C Csus4 Csus2



----------to--be---continued-----------------------|
---------------------------------------------------|
---------------------------------------------------|
---------i-am-to-lazy--to-tab-the-rest-----|-------|
---------------------------------------------------|
-------remember--to-pay pal--me—if--you--liked--it-|
[email protected]|



 
 
Guns N Roses - November Rain Acoustic Tab :: indexed at Ultimate Guitar.
November Rain Acoustic tabs @ 911Tabs

Quick tip, so you can enjoy November Rain Acoustic Tab even more:

YourChords.com Guitar Chords and Tabs Archive is currently indexing over 240'000 songs from 21'000+ different artists. And new chords just keep on coming in, so you will surely never run out of them.

Show us your talent, perform November Rain Acoustic Tab!

Here you can post a video or audio performance. Tell me more ...
Where can we find your performance? Tell me more ...
Your comment:
Please, log in to post your performance.